>
 >
Back Home 1

Back Home 1 Guitar Tabs

Yellowcard - Back Home 1 chords, tabs, tablatures, lyrics

Guitar lessons | Add/correct | Request | Top 50 tabs Artists:  A B C D E F G H I J K L M N O P Q R S T U V W X Y Z 0-9

Back Home 1 Guitar Tabs – Yellowcard

CD, Sheet music, Poster

Do you like Back Home 1? Share with your friends now
Bass TabsBass Tabs v2ChordsChords v2Chords v3Chords v4TabsTabs v2Ukulele
Yellowcard-
Back Home
(this is my first tab, but it is 100% right)
tuning- Drop D (DADGBE)

intro-
     DDDU D  D  D D  U  D
e|---2222-2--------------------------------------|
B|---3333-2--------------------------------------|
G|---4444-2-14-14-12-12-11------7-7--------------|
D|---4444-2--x--x--x--x-x-------7-7--------------|
A|-2-2222-0-12-12-10-10-9-----5-5-5-0-0-0--5-5-0-|
D|--------------------------5-5-5-5-0-0-0--5-4-0-|

Verse
e|-------------------------------------|
b|-------------------------------------|
g|-------------------------------------|
d|-7--7-7--7-7-7--7-7--7-7-7-x-x-7-7-7-|(x2)
a|-5--5-5--5-0-4--4-4--4-4-5-x-x-4-4-5-|
D|-------------------------------------|

Pre-Chorus (Clean)
e|---------------------------------------------------------------|
b|---------------------------------------------------------------|
g|-2---2---2---2---0---0---0---0---2---2---2---2---0---0---0---0-|
d|---0---0---0---0---0---0---0---0---0---0---0---0---0---0---0---|
a|---------------------------------------------------------------|
D|---------------------------------------------------------------|

Chorus (distortion)
e|--------------------------------------------------------------------|
b|--------------------------------------------------------------------|
g|--------------------------------------------------------------------|
d|-0-0-0-0-0-0-0-0--5-5-5-5-5-5-5-5--0-0-0-0-0-0-0-0--5-5-5-5-5-5-5-5-|
a|-0-0-0-0-0-0-0-0--5-5-5-5-5-5-5-5--0-0-0-0-0-0-0-0--5-5-5-5-5-5-5-5-|
D|-0-0-0-0-0-0-0-0--5-5-5-5-5-5-5-5--0-0-0-0-0-0-0-0--5-5-5-5-5-5-5-5-|

e|--------------------------------------------------------------------|
b|--------------------------------------------------------------------|
g|--------------------------------------------------------------------|
d|-0-0-0-0-0-0-0-0--5-5-5-5-5-5-5-5--7-7-7-7-7-7-7-7--5-5-5-5-5-5-5-5-|
a|-0-0-0-0-0-0-0-0--5-5-5-5-5-5-5-5--7-7-7-7-7-7-7-7--5-5-5-5-5-5-5-5-|
D|-0-0-0-0-0-0-0-0--5-5-5-5-5-5-5-5--7-7-7-7-7-7-7-7--5-5-5-5-5-5-5-5-|

Interlude: Repeat the intro cont. part x1

Verse
e|-------------------------------------|
b|-------------------------------------|
g|-------------------------------------|
d|-7--7-7--7-7-7--7-7--7-7-7-x-x-7-7-7-|(x2)
a|-5--5-5--5-0-4--4-4--4-4-5-x-x-4-4-5-|
D|-------------------------------------|

Pre-Chorus
e|---------------------------------------------------------------|
b|---------------------------------------------------------------|
g|-2---2---2---2---0---0---0---0---2---2---2---2---0---0---0---0-|
d|---0---0---0---0---0---0---0---0---0---0---0---0---0---0---0---|
a|---------------------------------------------------------------|
D|---------------------------------------------------------------|

Chorus
e|--------------------------------------------------------------------|
b|--------------------------------------------------------------------|
g|--------------------------------------------------------------------|
d|-0-0-0-0-0-0-0-0--5-5-5-5-5-5-5-5--0-0-0-0-0-0-0-0--5-5-5-5-5-5-5-5-|
a|-0-0-0-0-0-0-0-0--5-5-5-5-5-5-5-5--0-0-0-0-0-0-0-0--5-5-5-5-5-5-5-5-|
D|-0-0-0-0-0-0-0-0--5-5-5-5-5-5-5-5--0-0-0-0-0-0-0-0--5-5-5-5-5-5-5-5-|

e|--------------------------------------------------------------------|
b|--------------------------------------------------------------------|
g|--------------------------------------------------------------------|
d|-0-0-0-0-0-0-0-0--5-5-5-5-5-5-5-5--7-7-7-7-7-7-7-7--5-5-5-5-5-5-5-5-|
a|-0-0-0-0-0-0-0-0--5-5-5-5-5-5-5-5--7-7-7-7-7-7-7-7--5-5-5-5-5-5-5-5-|
D|-0-0-0-0-0-0-0-0--5-5-5-5-5-5-5-5--7-7-7-7-7-7-7-7--5-5-5-5-5-5-5-5-|

Breakdown
e|------------------|
b|------------------|
g|------------------|
d|-0---------0------|
a|-0---0-0---0------|
D|-0---0-0---0--12/-|
       . .
       
Bridge 
e|------------------------------------|
b|------------------------------------|
g|------------------------------------|
d|-9-9-9--7-7-7-0-0--5-5-5--------0-0-|(x3)
a|-9-9-9--7-7-7-0-0--5-5-5--5-5-5-0-0-|
D|-9-9-9--7-7-7-0-0--5-5-5--4-4-4-0-0-|

Bridge cont.
e|---------------------------------------------------------|
b|---------------------------------------------------------|
g|---------------------------------------------------------|
d|-9-9-9--7-7-7-0-0----------------------------------------|
a|-9-9-9--7-7-7-0-0--5-5--0~~~~~~~~~~~~--------------------|
D|-9-9-9--7-7-7-0-0--5-4--0~~~~~~~~~~~~---5~-----0~-----5~-|

Chorus
e|--------------------------------------------------------------------|
b|--------------------------------------------------------------------|
g|--------------------------------------------------------------------|
d|-0-0-0-0-0-0-0-0--5-5-5-5-5-5-5-5--7-7-7-7-7-7-7-7--5-5-5-5-5-5-5-5-|
a|-0-0-0-0-0-0-0-0--5-5-5-5-5-5-5-5--7-7-7-7-7-7-7-7--5-5-5-5-5-5-5-5-|
D|-0-0-0-0-0-0-0-0--5-5-5-5-5-5-5-5--7-7-7-7-7-7-7-7--5-5-5-5-5-5-5-5-|

e|--------------------------------------------------------------------|
b|--------------------------------------------------------------------|
g|--------------------------------------------------------------------|
d|-0-0-0-0-0-0-0-0--5-5-5-5-5-5-5-5--0-0-0-0-0-0-0-0--5-5-5-5-5-5-5-5-|
a|-0-0-0-0-0-0-0-0--5-5-5-5-5-5-5-5--0-0-0-0-0-0-0-0--5-5-5-5-5-5-5-5-|
D|-0-0-0-0-0-0-0-0--5-5-5-5-5-5-5-5--0-0-0-0-0-0-0-0--5-5-5-5-5-5-5-5-|

e|--------------------------------------------------------------------|
b|--------------------------------------------------------------------|
g|--------------------------------------------------------------------|
d|-0-0-0-0-0-0-0-0--5-5-5-5-5-5-5-5--7-7-7-7-7-7-7-7--5-5-5-5-5-5-5-5-|
a|-0-0-0-0-0-0-0-0--5-5-5-5-5-5-5-5--7-7-7-7-7-7-7-7--5-5-5-5-5-5-5-5-|
D|-0-0-0-0-0-0-0-0--5-5-5-5-5-5-5-5--7-7-7-7-7-7-7-7--5-5-5-5-5-5-5-5-|

Outro
e|-----------------------------------------------------------------|
b|---3-3-3--3-2-2-2-2----------------------------------------------|
g|---4-4-4--4-2-2-2-2----14-14-14-x-x-12-12-11------7-7------------|
d|---4-4-4--4-2-2-2-2-----x--x--x-x-x--x--x-x-------7-7------------|
a|-2---------------------12-12-12-x-x-10-10-9-----5-5-5-0-0--5-5-0~|
D|--------------------0-------------------------5-5-5-5-0-0--5-4-0~|





Comments


Popular Yellowcard tabs & chords
Cut Me Mick Bass Tabs
Everywhere Chords
Keeper Chords
Always Summer 3 Tabs
Holly Wood Died 2 Tabs
One Year, Six Months 2 Tabs
Rocket Tabs
Sure Thing Falling 1 Tabs
Rough Draft Ukulele
You And Me And One Spotlight Ukulele


Song lyrics



↑ Back to top | Tablatures and chords are parodies/interpretations of the original songs. You may use it for private study, scholarship, research or language learning purposes only
© 2014 AZChords.com Contact us | Privacy policy | DMCA | Add/correct tabs | Request tabs | Top 50 tabs