>
 >
Back Home

Back Home Bass Tabs

Yellowcard - Back Home chords, tabs, tablatures, lyrics

Guitar lessons | Add/correct | Request | Top 50 tabs Artists:  A B C D E F G H I J K L M N O P Q R S T U V W X Y Z 0-9

Back Home Bass Tabs – Yellowcard

CD, Sheet music, Poster

Do you like Back Home? Share with your friends now
Bass TabsBass Tabs v2ChordsChords v2Chords v3Chords v4TabsTabs v2Ukulele
Artist - Yellowcard
Album - Ocean Avenue
Track - Back Home
Tuning - Dropped D (DADG)

NB - (n) notes inside parentheses are optional
   - where two 'o' are used, repeat between (if repeat is more than x2, it will be ABOVE bar)

Intro                                                            x3
G|--------------------------------|--------------------------------|
D|o-------------------------------|-------------------------------o|
A|o-------------------------------|-------------------------------o|
D|--------------------------------|--------------------------------|

G|--------------------------------|---------------------7---6------|
D|--------------------------------|-----------------------------7-\|
A|--------------------------------|--------------------------------|
D|--------------------------------|--------------------------------|

G|--------------------------------|--------------------------------|
D|--------------------------------|--------------------------------|
A|-2-------2-------2--(2)------2--|-2-------2---2---0---0----------|
D|--------------------------------|--------------------------------|

G|--------------------------------|--------------------------------|
D|--------------------------------|--------------------------------|
A|-5-------5-------5--(5)------5--|-5-------5---5---5---5----------|
D|--------------------------------|--------------------------------|

G|--------------------------------|--------------------------------|
D|-5-------5-------5---7-------5--|-5---------4--------------------|
A|--------------------------------|---------------------5----------|
D|--------------------------------|--------------------------------|

G|--------------------------------|
D|--------------------------------|
A|--------------------------------|
D|--------------------------------|   

Verse 1                                                          x8
G|--------------------------------|--------------------------------|
D|o-------------------------------|-------------------------------o|
A|o-------------------------------|-------------------------------o|
D|--------------------------------|--------------------------------|

Pre Chorus
G|--------------------------------|--------------------------------|
D|--------------------------------|--------------------------------|
A|--------------------------------|--------------------------------|
D|-7---------------7--------------|-7---------------7--------------|

G|--------------------------------|--------------------------------|
D|--------------------------------|--------------------------------|
A|--------------------------------|--------------------------------|
D|-5---------------5--------------|-5---------------5--------------|

G|--------------------------------|--------------------------------|
D|--------------------------------|--------------------------------|
A|--------------------------------|--------------------------------|
D|-7---------------7--------------|-7---------------7--------------|

G|--------------------------------|--------------------------------|
D|--------------------------------|--------------------------------|
A|--------------------------------|--------------------------------|
D|-5---------------5---5---5---5--|-5---5---5---5---5---5---5---5--|

Chorus 1
G|--------------------------------|--------------------------------|
D|o-------------------------------|--------------------------------|
A|o5---------------5-------5---5--|-----5---5-------5---5---5---5--|
D|--------------------------------|--------------------------------|
                                                                 x3
G|--------------------------------|--------------------------------|
D|--------------------------------|-------------------------------o|
A|--------------------------------|-------------------------------o|
D|-5---------------5-------5---5--|-----5---5-------5---5---5---5--|

G|--------------------------------|--------------------------------|
D|--------------------------------|--------------------------------|
A|-5---------------5-------5---5--|-----5---5-------5---5---5---5--|
D|--------------------------------|--------------------------------|

G|--------------------------------|--------------------------------|
D|(5)-------(4)-------------------|--------------------------------|
A|---------------------(5)--------|--------------------------------|
D|--------------------------------|--------------------------------|

Intro Repeat
G|--------------------------------|--------------------------------|
D|--------------------------------|--------------------------------|
A|-2-------2-------2--(2)------2--|-2-------2---2---0---0----------|
D|--------------------------------|--------------------------------|

G|--------------------------------|--------------------------------|
D|--------------------------------|--------------------------------|
A|-5-------5-------5--(5)------5--|-5-------5---5---5---5----------|
D|--------------------------------|--------------------------------|

G|--------------------------------|--------------------------------|
D|-5-------5-------5---7-------5--|-5---------4--------------------|
A|--------------------------------|---------------------5----------|
D|--------------------------------|--------------------------------|

G|--------------------------------|
D|--------------------------------|
A|--------------------------------|
D|--------------------------------|  

Verse 2                                                          x8
G|--------------------------------|--------------------------------|
D|o-------------------------------|-------------------------------o|
A|o-------------------------------|-------------------------------o|
D|--------------------------------|--------------------------------|

Pre Chorus
G|--------------------------------|--------------------------------|
D|--------------------------------|--------------------------------|
A|--------------------------------|--------------------------------|
D|-7---------------7--------------|-7---------------7--------------|

G|--------------------------------|--------------------------------|
D|--------------------------------|--------------------------------|
A|--------------------------------|--------------------------------|
D|-5---------------5--------------|-5---------------5--------------|

G|--------------------------------|--------------------------------|
D|--------------------------------|--------------------------------|
A|--------------------------------|--------------------------------|
D|-7---------------7--------------|-7---------------7--------------|

G|--------------------------------|--------------------------------|
D|--------------------------------|--------------------------------|
A|--------------------------------|--------------------------------|
D|-5---------------5---5---5---5--|-5---5---5---5---5---5---5---5--|

Chorus 2
G|--------------------------------|--------------------------------|
D|o-------------------------------|--------------------------------|
A|o5---------------5-------5---5--|-----5---5-------5---5---5---5--|
D|--------------------------------|--------------------------------|
                                                                 x3
G|--------------------------------|--------------------------------|
D|--------------------------------|-------------------------------o|
A|--------------------------------|-------------------------------o|
D|-5---------------5-------5---5--|-----5---5-------5---5---5---5--|

G|--------------------------------|--------------------------------|
D|--------------------------------|--------------------------------|
A|-5---------------5-------5---5--|-----5---5-------5---5---5---5--|
D|--------------------------------|--------------------------------|

G|--------------------------------|--------------------------------|
D|--------------------------------|--------------------------------|
A|--------------------------------|--------------------------------|
D|-5------------------------------|-5------------------------------|

Bridge
G|--------------------------------|--------------------------------|
D|--------------------------------|--------------------------------|
A|-5------------------------------|--------------------------------|
D|--------------------------------|--------------------------------|

G|--------------------------------|--------------------------------|
D|--------------------------------|--------------------------------|
A|-5------------------------------|--------------------------------|
D|--------------------------------|----------------------------12\-|

G|--------------------------------|--------------------------------|
D|o-------------------------------|--------------------------------|
A|o2-------2-------2-------2---2--|-0-------0-------0-------0---0--|
D|--------------------------------|--------------------------------|
                                                                 x3
G|--------------------------------|--------------------------------|
D|--------------------------------|-------------------------------o|
A|--------------------------------|-----------------5-------5---5-o|
D|-5-------5-------5-------5---5--|-5-------5---5------------------|

G|--------------------------------|--------------------------------|
D|--------------------------------|--------------------------------|
A|---------2-------2-------2---2--|-0-------0-------0-------0---0--|
D|--------------------------------|--------------------------------|

G|--------------------------------|--------------------------------|
D|-5---------4--------------------|--------------------------------|
A|----------------------5---------|--------------------------------|
D|--------------------------------|--------------------------------|
                                                                 x4
G|--------------------------------|--------------------------------|
D|o-------------------------------|-------------------------------o|
A|o-------------------------------|-------------------------------o|
D|--------------------------------|--------------------------------|

Last Chorus
G|--------------------------------|--------------------------------|
D|--------------------------------|--------------------------------|
A|-5---------------5-------5---5--|-----5---5-------5---5---5---5--|
D|--------------------------------|--------------------------------|
                                                                 
G|--------------------------------|--------------------------------|
D|--------------------------------|--------------------------------|
A|--------------------------------|--------------------------------|
D|-5---------------5-------5---5--|-----5---5-------5---5---5---5--|

G|--------------------------------|--------------------------------|
D|--------------------------------|--------------------------------|
A|-5---------------5-------5---5--|-----5---5-------5---5---5---5--|
D|--------------------------------|--------------------------------|
                                                                 
G|--------------------------------|--------------------------------|
D|--------------------------------|--------------------------------|
A|--------------------------------|--------------------------------|
D|-5-------------------5---5---5--|-5-------------------5---5---5--|

G|--------------------------------|--------------------------------|
D|o-------------------------------|--------------------------------|
A|o5---------------5-------5---5--|-----5---5-------5---5---5---5--|
D|--------------------------------|--------------------------------|
                                                                 x3
G|--------------------------------|--------------------------------|
D|--------------------------------|-------------------------------o|
A|--------------------------------|-------------------------------o|
D|-5---------------5-------5---5--|-----5---5-------5---5---5---5--|

G|--------------------------------|--------------------------------|
D|--------------------------------|--------------------------------|
A|--------------------------------|--------------------------------|
D|-5------------------------------|--------------------------------|

Outro                                                            x5
G|--------------------------------|--------------------------------|
D|o-------------------------------|-------------------------------o|
A|o-------------------------------|-------------------------------o|
D|--------------------------------|--------------------------------|





Comments


Popular Yellowcard tabs & chords
Only One Live Bass Tabs
Shrink The World Bass Tabs
Lights And Sounds Chords
Only One 4 Chords
Empty Apartment 2 Tabs
Empty Apartment 3 Tabs
Powder 2 Tabs
Three Flights Up 2 Tabs
Violins Tabs
Fighting Ukulele


Song lyrics



↑ Back to top | Tablatures and chords are parodies/interpretations of the original songs. You may use it for private study, scholarship, research or language learning purposes only
© 2014 AZChords.com Contact us | Privacy policy | DMCA | Add/correct tabs | Request tabs | Top 50 tabs