>
 >
Awakening

Awakening Bass Tabs

Yellowcard - Awakening chords, tabs, tablatures, lyrics

Guitar lessons | Add/correct | Request | Top 50 tabs Artists:  A B C D E F G H I J K L M N O P Q R S T U V W X Y Z 0-9

Awakening Bass Tabs – Yellowcard

CD, Sheet music, Poster

Do you like Awakening? Share with your friends now
Bass TabsChordsChords v2TabsUkulele
------------------------
 Awakening ~ Yellowcard
------------------------
Southern Air      (2012)

(I know, pretty lame name)

Instrument: Bass

Tempo: 190

Key: E

Tuning: E Standard



CHORUS (0:00)
(Bass doesn't play)


INTERLUDE (0:25)

G|----------------------------|----------------------------|
D|--2--2--2--2-----2-----2----|--2--2--2--2-----2-----2----|
A|----------------------------|----------------------------|
E|----------------------------|----------------------------|

----------------------------|----------------------------|
--1--1--1--1-----2-----2----|--1--1--1--1-----2-----2----|
----------------------------|----------------------------|
----------------------------|----------------------------|

----------------------------|----------------------------|
-----------------2-----2----|-----------------2-----2----|
--4--4--4--4----------------|--4--4--4--4----------------|
----------------------------|----------------------------|

----------------------------|----------------------------|
--1--1--1--1-----2-----2----|--1--1--1--1-----2-----2----|
----------------------------|----------------------------|
----------------------------|----------------------------|

(Repeat)


VERSE (0:45)

----------------------------|----------------------------|
--2--2--2--2--2--2--2--2----|--2--2--2--2--2--2--2--2----|
----------------------------|----------------------------|
----------------------------|----------------------------|

----------------------------|----------------------------|
--2--2--2--2--2--2--2--2----|--2--2--2--2--1--1--1--1----|
----------------------------|----------------------------|
----------------------------|----------------------------|

----------------------------|----------------------------|
----------------------------|----------------------------|
--4--4--4--4--4--4--4--4----|--4--4--4--4--4--4--4--4----|
----------------------------|----------------------------|

----------------------------|----------------------------|
----------------------------|----------------------------|
--4--4--4--4--4--4--4--4----|----------------------------|
----------------------------|--2--2--2--2--4--4--4--4----|

(Repeat)


PRE-CHORUS (1:06)

----------------|--------------------|
----------------|--------------------|
----------------|--------------------|
--0--------0L---|--0-----------------|

----------------|--------------------|
----------------|--------------------|
----------------|--------------------|
--0--------0L---|--0-----------------|


CHORUS (1:10)

----------------------------|----------------------------|
--2--2--2--2--2--2--2--2----|--2--2--2--2--2--2--2--2----|
----------------------------|----------------------------|
----------------------------|----------------------------|

----------------------------|----------------------------|
--1--1--1--1--1--1--1--1----|--1--1--1--1--1--1--1--1----|
----------------------------|----------------------------|
----------------------------|----------------------------|

----------------------------|----------------------------|
----------------------------|----------------------------|
--4--4--4--4--4--4--4--4----|--4--4--4--4--4--4--4--4----|
----------------------------|----------------------------|

----------------------------|----------------------------|
--1--1--1--1--1--1--1--1----|--1--1--1--1--1--1--1--1----|
----------------------------|----------------------------|
----------------------------|----------------------------|

(Repeat)

----------------------------|----------------------------|
----------------------------|----------------------------|
----------------------------|----------------------------|
--0--0--0--0--0--0--0--0----|--0--0--0--0--0--0--0--0----|

----------------------------|-------|
----------------------------|-------|
----------------------------|-------|
--2--2--2--2--2--2--2--2----|-------|


INTERLUDE (1:36)
(Same as first Interlude, but only played once)


VERSE (1:46)

----------------------------|----------------------------|
----------------------------|----------------------------|
----------------------------|----------------------------|
--0--0-----0--0--0-----0----|--0--0-----0--0--0-----0----|

----------------------------|----------------------------|
----------------------------|--------------1--1--1--1----|
----------------------------|----------------------------|
--0--0-----0--0--0-----0----|--0--0-----0----------------|

----------------------------|----------------------------|
----------------------------|----------------------------|
--4--4-----4--4--4-----4----|--4--4-----4--4--4-----4----|
----------------------------|----------------------------|

----------------------------|----------------------------|
----------------------------|----------------------------|
--4--4-----4--4--4-----4----|----------------------------|
----------------------------|--2--2--2--2--4--4--4--4----|

(Repeat)


PRE-CHORUS (2:06)
(Same as first Pre-Chorus)


CHORUS (2:11)

----------------------------|----------------------------|
--2--2--2--2--2--2--2--2----|--2--2--2--2--2--2--2--2----|
----------------------------|----------------------------|
----------------------------|----------------------------|

----------------------------|----------------------------|
--1--1--1--1--1--1--1--1----|--1--1--1--1--1--1--1--1----|
----------------------------|----------------------------|
----------------------------|----------------------------|

----------------------------|----------------------------|
----------------------------|----------------------------|
--4--4--4--4--4--4--4--4----|--4--4--4--4--4--4--4--4----|
----------------------------|----------------------------|

----------------------------|----------------------------|
--1--1--1--1--1--1--1--1----|--1--1--1--1--1--1--1--1----|
----------------------------|----------------------------|
----------------------------|----------------------------|

(Repeat)

----------------------------|----------------------------|
----------------------------|----------------------------|
----------------------------|----------------------------|
--0--0--0--0--0--0--0--0----|--0--0--0--0--0--0--0--0----|

----------------------------|
----------------------------|
----------------------------|
--2--2--2--2--2--2--2--2----|

----------------------------|----------------------------|
----------------------------|----------------------------|
----------------------------|----------------------------|
--2--2--2--2--2--2--2--2----|--4--4--4--4--4--4--4--4----|

----------------------------|----------------------------|
----------------------------|----------------------------|
----------------------------|--2--2--2--2--2--2--2--2----|
--4--4--4--4--4--4--4--4----|----------------------------|

----------------------------|----------------------------|
----------------------------|----------------------------|
----------------------------|----------------------------|
--2--2--2--2--2--2--2--2----|--0--0--0--0--0--0--0--0----|

----------------------------|----------------------------|
----------------------------|----------------------------|
----------------------------|----------------------------|
--0--0--0--0--0--0--0--0----|--2--2--2--2--2--2--2--2----|

----------------------------|
----------------------------|
----------------------------|
--2--2--2--2--2--2--2--2----|


BRIDGE (2:46)

-------|-------|-------|
-------|-------|-------|
--4L---|--4----|--4----|
-------|-------|-------|

----------------------------|-------|-------|-------|
-----------2L-2-------------|-------|-------|-------|
----------------------------|--0L---|--0----|--0----|
--0-----------------0-------|-------|-------|-------|

----------------------------|-------|-------|-------|
-----------2L-2-------------|-------|-------|-------|
----------------------------|--4L---|--4----|--4----|
--0-----------------0-------|-------|-------|-------|

----------------------------|-------|-------|-------|
-----------2L-2-------------|-------|-------|-------|
----------------------------|--0L---|--0----|--0----|
--0-----------------0-------|-------|-------|-------|

----------------------------|----------------------------|
-----------2L-2-------------|----------------------------|
----------------------------|--4--4--4--4--4--4--4--4----|
--0-----------------0-------|----------------------------|

----------------------------|----------------------------|
----------------------------|----------------------------|
--4--4--4--4--4--4--4--4----|--4--4--4--4--4--4--4--4----|
----------------------------|----------------------------|

----------------------------|----------------------------|
----------------------------|----------------------------|
----------------------------|--0--0--0--0--0--0--0--0----|
--0--0--0--0--0--0--0--0----|----------------------------|

----------------------------|----------------------------|
----------------------------|----------------------------|
--0--0--0--0--0--0--0--0----|--0--0--0--0--0--0--0--0----|
----------------------------|----------------------------|

----------------------------|----------------------------|
----------------------------|----------------------------|
----------------------------|--4--4--4--4--4--4--4--4----|
--0--0--0--0--0--0--0--0----|----------------------------|

----------------------------|----------------------------|
----------------------------|----------------------------|
--4--4--4--4--4--4--4--4----|--4--4--4--4--4--4--4--4----|
----------------------------|----------------------------|

----------------------------|----------------------------|
----------------------------|----------------------------|
----------------------------|--0--0--0--0--0--0--0--0----|
--0--0--0--0--0--0--0--0----|----------------------------|

----------------------------|----------------------------|
----------------------------|----------------------------|
--0--0--0--0--0--0--0--0----|--0--0--0--0--0--0--0--0----|
----------------------------|----------------------------|

----------------------------|
----------------------------|
----------------------------|
--0--0--0--0--0--0--0--0----|


CHORUS (3:27)

----------------|----------------|----------------|
--2--2--2--2----|--2--2--2--2----|--1--1--1--1----|
----------------|----------------|----------------|
----------------|----------------|----------------|

----------------|----------------|----------------|----------------------------|
--1--1--1--1----|----------------|----------------|--1--1--1--1--1--1--1--1----|
----------------|--4--4--4--4----|--4--4--4--4----|----------------------------|
----------------|----------------|----------------|----------------------------|

----------------------------|----------------------------|
--1--1--1--1--1--1--1--1----|--2--2--2--2--2--2--2--2----|
----------------------------|----------------------------|
----------------------------|----------------------------|

----------------------------|----------------------------|
--2--2--2--2--2--2--2--2----|--1--1--1--1--1--1--1--1----|
----------------------------|----------------------------|
----------------------------|----------------------------|

----------------------------|----------------------------|
--1--1--1--1--1--1--1--1----|----------------------------|
----------------------------|--4--4--4--4--4--4--4--4----|
----------------------------|----------------------------|

----------------------------|----------------------------|
----------------------------|--1--1--1--1--1--1--1--1----|
--4--4--4--4--4--4--4--4----|----------------------------|
----------------------------|----------------------------|

----------------------------|----------------------------|
--1--1--1--1--1--1--1--1----|----------------------------|
----------------------------|----------------------------|
----------------------------|--0--0--0--0--0--0--0--0----|

----------------------------|----------------------------|
----------------------------|----------------------------|
----------------------------|----------------------------|
--0--0--0--0--0--0--0--0----|--2--2--2--2--2--2--2--2----|

----------------------------|----------------------------|
----------------------------|----------------------------|
----------------------------|----------------------------|
--2--2--2--2--2--2--2--2----|--4--4--4--4--4--4--4--4----|

----------------------------|----------------------------|
----------------------------|----------------------------|
----------------------------|--2--2--2--2--2--2--2--2----|
--4--4--4--4--4--4--4--4----|----------------------------|

----------------------------|----------------------------|
----------------------------|----------------------------|
----------------------------|----------------------------|
--2--2--2--2--2--2--2--2----|--0--0--0--0--0--0--0--0----|

----------------------------|----------------------------|-------|
----------------------------|----------------------------|-------|
----------------------------|----------------------------|-------|
--0--0--0--0--0--0--0--0----|--2--2--2--2--2--2--2--2----|-------|


OUTRO (4:02)
(Same as first Interlude)



KEY:
L = Tied Note





Comments


Popular Yellowcard tabs & chords
Believe 2 Bass Tabs
Fighting Chords
Breathig Tabs
For You And Your Denial Tabs
Star Struck Tabs
Ten 2 Tabs
Afraid Ukulele
Awol Ukulele
For You And Your Denial Ukulele
Miles Apart Ukulele


Song lyrics



↑ Back to top | Tablatures and chords are parodies/interpretations of the original songs. You may use it for private study, scholarship, research or language learning purposes only
© 2014 AZChords.com Contact us | Privacy policy | DMCA | Add/correct tabs | Request tabs | Top 50 tabs