» » »

Yellowcard, Always Summer Tabs (ver.1)

Artists:  A B C D E F G H I J K L M N O P Q R S T U V W X Y Z # 

Always Summer Tabs (ver.1)

Yellowcard Tabs
 Rating:
4.2/5 (5 votes)
Always Summer lessons Tabs too difficult? Try these video lessons and learn fast
                (Intro)
----------------------------
 Always Summer ~ Yellowcard
----------------------------

(I know, pretty lame name)

Part: Intro

Tuning: Drop D

  Guitar 1   (Let Ring)
E|-----0-----0-----0-----0--|-----0-----0-----0-----0--|
B|--9-----9-----0-----7-----|--7-----7-----7-----0-----|
G|--------------------------|--------------------------|
D|--------------------------|--------------------------|
A|--------------------------|--------------------------|
D|--------------------------|--------------------------|


THEN


  Guitar 1   (Let Ring)
E|-----0-----0-----0-----0--|-----0-----0-----0-----0--|
B|--9-----9-----0-----7-----|--7-----0-----7-----0-----|
G|--------------------------|--------------------------|
D|--------------------------|--------------------------|
A|--------------------------|--------------------------|
D|--------------------------|--------------------------|

E|-----0-----0-----0-----0--|-----0-----0-----0-----0--|
B|--5-----5-----5-----4-----|--4-----4-----4-----4-----|
G|--------------------------|--------------------------|
D|--------------------------|--------------------------|
A|--------------------------|--------------------------|
D|--------------------------|--------------------------|

E|-----0-----0-----0-----0--|-----0-----0-----0-----0--|
B|--9-----9-----0-----7-----|--7-----0-----7-----9-----|
G|--------------------------|--------------------------|
D|--------------------------|--------------------------|
A|--------------------------|--------------------------|
D|--------------------------|--------------------------|

E|-----0-----0-----0-----0--|-----0-----0-----0-----0--|
B|--5-----5-----5-----4-----|--4-----4-----4-----4-----|
G|--------------------------|--------------------------|
D|--------------------------|--------------------------|
A|--------------------------|--------------------------|
D|--------------------------|--------------------------|


  Guitar 2
E|--------------------------|--------------------------|
B|--------------------------|--------------------------|
G|--------------------------|--------------------------|
D|--2--2-----2--2-----------|--------------------------|
A|--0--0-----0--0-----2--2--|--2--2-----2--2-----2--2--|
D|--------------------0--0--|--0--0-----0--0-----0--0--|

E|--------------------------|--------------------------|
B|--------------------------|--------------------------|
G|--------------------------|--------------------------|
D|--6--6-----6--6-----4--4--|--4--4-----4--4-----4--4--|
A|--4--4-----4--4-----2--2--|--2--2-----2--2-----2--2--|
D|--------------------------|--------------------------|

E|--------------------------|--------------------------|
B|--------------------------|--------------------------|
G|--------------------------|--------------------------|
D|--2--2-----2--2-----------|--------------------------|
A|--0--0-----0--0-----2--2--|--2--2-----2--2-----2--2--|
D|--------------------0--0--|--0--0-----0--0-----0--0--|

E|--------------------------|--------------------------|
B|--------------------------|--------------------------|
G|--------------------------|--------------------------|
D|--6--6-----6--6-----4--4--|--4--4-----4--4-----4--4--|
A|--4--4-----4--4-----2--2--|--2--2-----2--2-----2--2--|
D|--------------------------|--------------------------|
            
Submit corrections

comments powered by Disqus
↑ Back to top | Yellowcard Tabs for Always Summer. Lyrics for acoustic guitar and electric guitar. Tablatures and chords are parodies/interpretations of the original songs. You may use it for private study, scholarship, research or language learning purposes only