>
 >
Always Summer

Always Summer Guitar Tabs

Yellowcard - Always Summer chords, tabs, tablatures, lyrics

Guitar lessons | Add/correct | Request | Top 50 tabs Artists:  A B C D E F G H I J K L M N O P Q R S T U V W X Y Z 0-9

Always Summer Guitar Tabs – Yellowcard

CD, Sheet music, Poster

Do you like Always Summer? Share with your friends now
ChordsTabsTabs v2Tabs v3Ukulele
----------------------------
 Always Summer ~ Yellowcard
----------------------------

(I know, pretty lame name)

Tuning: E Standard

Key: E

Timing: 4/4

Tempo: 170bpm



*GUITAR 1*


INTRO

  (Let Ring)
E|-----0-----0-----0-----0--|-----0-----0-----0-----0--|
B|--9-----9-----0-----7-----|--7-----7-----7-----0-----|
G|--------------------------|--------------------------|
D|--------------------------|--------------------------|
A|--------------------------|--------------------------|
E|--------------------------|--------------------------|

E|-----0-----0-----0-----0--|-----0-----0-----0-----0--|
B|--9-----9-----0-----7-----|--7-----0-----7-----0-----|
G|--------------------------|--------------------------|
D|--------------------------|--------------------------|
A|--------------------------|--------------------------|
E|--------------------------|--------------------------|

E|-----0-----0-----0-----0--|-----0-----0-----0-----0--|
B|--5-----5-----5-----4-----|--4-----4-----4-----4-----|
G|--------------------------|--------------------------|
D|--------------------------|--------------------------|
A|--------------------------|--------------------------|
E|--------------------------|--------------------------|

E|-----0-----0-----0-----0--|-----0-----0-----0-----0--|
B|--9-----9-----0-----7-----|--7-----0-----7-----0-----|
G|--------------------------|--------------------------|
D|--------------------------|--------------------------|
A|--------------------------|--------------------------|
E|--------------------------|--------------------------|

E|-----0-----0-----0-----0--|-----0-----0-----0-----0--|
B|--5-----5-----5-----4-----|--4-----4-----4-----4-----|
G|--------------------------|--------------------------|
D|--------------------------|--------------------------|
A|--------------------------|--------------------------|
E|--------------------------|--------------------------|


VERSE

(Rest 6 Measures)

E|--------------------------|--------------------------|
B|--------------------------|--------------------------|
G|--9--9-----9--9--9--8--8--|-----8--8--8--8--8--8--8--|
D|--X--X-----X--X--X--X--X--|-----X--X--X--X--X--X--X--|
A|--7--7-----7--7--7--6--6--|-----6--6--6--6--6--6--6--|
E|--------------------------|--------------------------|

(Rest 6 Measures)

E|--------------------------|--------------------------|
B|--------------------------|--------------------------|
G|--9--9-----9--9--9--8--8--|-----8--8--8--8--8--------|
D|--X--X-----X--X--X--X--X--|-----X--X--X--X--X--------|
A|--7--7-----7--7--7--6--6--|-----6--6--6--6--6--------|
E|--------------------------|--------------------------|


CHORUS

  (Let Ring)
E|-----0-----0-----0-----0--|-----0-----0-----0-----0--|
B|--5-----5-----5-----7-----|--7-----7-----7-----7-----|
G|--------------------------|--------------------------|
D|--------------------------|--------------------------|
A|--------------------------|--------------------------|
E|--------------------------|--------------------------|

E|-----0-----0-----0-----0--|-----0-----0-----0-----0--|
B|--5-----5-----5-----4-----|--4-----4-----4-----4-----|
G|--------------------------|--------------------------|
D|--------------------------|--------------------------|
A|--------------------------|--------------------------|
E|--------------------------|--------------------------|

(Repeat)


POST-CHORUS

  (Let Ring)
E|-----0-----0-----0-----0--|-----0-----0-----0-----0--|
B|--9-----9-----0-----7-----|--7-----0-----7-----0-----|
G|--------------------------|--------------------------|
D|--------------------------|--------------------------|
A|--------------------------|--------------------------|
E|--------------------------|--------------------------|

E|-----0-----0-----0-----0--|-----0-----0-----0-----0--|
B|--5-----5-----5-----4-----|--4-----4-----4-----4-----|
G|--------------------------|--------------------------|
D|--------------------------|--------------------------|
A|--------------------------|--------------------------|
E|--------------------------|--------------------------|

(Repeat)


VERSE

(Rest 6 Measures)

E|--------------------------|--------------------------|
B|--------------------------|--------------------------|
G|--9--9-----9--9--9--8--8--|-----8--8--8--8--8--8--8--|
D|--X--X-----X--X--X--X--X--|-----X--X--X--X--X--X--X--|
A|--7--7-----7--7--7--6--6--|-----6--6--6--6--6--6--6--|
E|--------------------------|--------------------------|

E|--------------------------|--------------------------|
B|-12----------------12-12--|-12----12----------12-----|
G|--X-----------------X--X--|--X-----X-----------X-----|
D|--9-----------------9--9--|--9-----9-----------9-----|
A|--------------------------|--------------------------|
E|--------------------------|--------------------------|

E|--------------------------|--------------------------|
B|--------------------------|-------------------12-12--|
G|--9----------------11-11--|-11----11-----------X--X--|
D|--X-----------------X--X--|--X-----X-----------9--9--|
A|--7-----------------9--9--|--9-----9-----------------|
E|--------------------------|--------------------------|

E|--------------------------|--------------------------|
B|-12----------------12-12--|-12----12----------12-----|
G|--X-----------------X--X--|--X-----X-----------X-----|
D|--9-----------------9--9--|--9-----9-----------9-----|
A|--------------------------|--------------------------|
E|--------------------------|--------------------------|

E|--------------------------|--------------------------|
B|--------------------------|--------------------------|
G|--9--9-----9--9--9--8--8--|-----8--8--8--8--8--8--8--|
D|--X--X-----X--X--X--X--X--|-----X--X--X--X--X--X--X--|
A|--7--7-----7--7--7--6--6--|-----6--6--6--6--6--6--6--|
E|--------------------------|--------------------------|


PRE-CHORUS

E|--0--------0--------0L----|-(0)----------------------|
B|--9--------5--------7L----|-(7)----------------------|
G|--------------------------|--------------------------|
D|--------------------------|--------------------------|
A|--------------------------|--------------------------|
E|--------------------------|--------------------------|


CHORUS
(Same as Before)


INTERLUDE

E|--------------------------|--------------------------|
B|--------------------------|--------------------------|
G|--6--6--6--6--6--6-13-13--|-13-13-13-13-13-13-13-13--|
D|--X--X--X--X--X--X--X--X--|--X--X--X--X--X--X--X--X--|
A|--4--4--4--4--4--4-11-11--|-11-11-11-11-11-11-11-11--|
E|--------------------------|--------------------------|

E|--------------------------|--------------------------|
B|--------------------------|--------------------------|
G|--9--9--9--9--9--9--8--8--|--8--8--8--8--8--8--8--8--|
D|--X--X--X--X--X--X--X--X--|--X--X--X--X--X--X--X--X--|
A|--7--7--7--7--7--7--6--6--|--6--6--6--6--6--6--6--6--|
E|--------------------------|--------------------------|

(Repeat)


BRIDGE

  (Palm Mute)
E|--------------------------|--------------------------|
B|--------------------0-----|--------------0-----------|
G|--------1-----1-----------|--------------------1-----|
D|--2--2-----2-----2-----2--|--4--2--4--2-----2-----2--|
A|--------------------------|--------------------------|
E|--------------------------|--------------------------|

(Repeat 5 More Times)


VIOLIN SOLO

E|--------------------------|--------------------------|
B|--------------------------|--------------------------|
G|--------------------------|--------------------------|
D|--9--9--9--9--9--9--9--9--|--9--9--9--9--9--9--9--9--|
A|--7--7--7--7--7--7--7--7--|--7--7--7--7--7--7--7--7--|
E|--------------------------|--------------------------|

E|--------------------------|--------------------------|
B|--------------------------|--------------------------|
G|--------------------------|--------------------------|
D|--------------------------|--------------------------|
A|--7--7--7--7--7--7--7--7--|--7--7--7--7--7--7--7--7--|
E|--5--5--5--5--5--5--5--5--|--5--5--5--5--5--5--5--5--|

E|--------------------------|--------------------------|
B|--------------------------|--------------------------|
G|--------------------------|--------------------------|
D|--------------------------|--------------------------|
A|--7--7--7--7--7--7--7--7--|--7--7--7--7--7--7--7--7--|
E|--4--4--4--4--4--4--4--4--|--4--4--4--4--4--4--4--4--|

E|--------------------------|--------------------------|
B|--------------------------|--------------------------|
G|--------------------------|--------------------------|
D|--9--9--9--9--9--9--9--9--|--9--9--9--9--9--9--9--9--|
A|--6--6--6--6--6--6--6--6--|--6--6--6--6--6--6--6--6--|
E|--------------------------|--------------------------|

(Repeat)


PRE-CHORUS

E|--4--4-----0--0--0--0--0--|-----0--0--0--0--0--0--0--|
B|--5--5-----4--4--4--5--5--|-----5--5--5--5--5--5--5--|
G|--4--4-----4--4--4--4--4--|-----4--4--4--4--4--4--4--|
D|-----------X--X--X--X--X--|-----X--X--X--X--X--X--X--|
A|-----------0--0--0--2--2--|-----2--2--2--2--2--2--2--|
E|--------------------------|--------------------------|

E|--0--0-----0--0--0--0--0--|-----0--0--0--0--0--0--0--|
B|--5--5-----5--5--5--4--4--|-----5--5--5--5--5--5--5--|
G|--4--4-----4--4--4--4--4--|-----4--4--4--4--4--4--4--|
D|--X--X-----X--X--X--X--X--|-----X--X--X--X--X--X--X--|
A|--4--4-----4--4--4--2--2--|-----2--2--2--2--2--2--2--|
E|--------------------------|--------------------------|


CHORUS
(Same as Before)


INTERLUDE
(Same as Before)


OUTRO
(Same as Post-Chorus)





*GUITAR 2*


INTRO

(Rest 2 Measures)

E|--------------------------|--------------------------|
B|--------------------------|--------------------------|
G|--2--2-----2--2--2--9--9--|-----9--9--9--9--9--9--9--|
D|--2--2-----2--2--2--9--9--|-----9--9--9--9--9--9--9--|
A|--0--0-----0--0--0--7--7--|-----7--7--7--7--7--7--7--|
E|--------------------------|--------------------------|

E|--------------------------|--------------------------|
B|--------------------------|--------------------------|
G|--6--6-----6--6--6--4--4--|-----4--4--4--4--4--4--4--|
D|--6--6-----6--6--6--4--4--|-----4--4--4--4--4--4--4--|
A|--4--4-----4--4--4--2--2--|-----2--2--2--2--2--2--2--|
E|--------------------------|--------------------------|

E|--------------------------|--------------------------|
B|--------------------------|--------------------------|
G|--2--2-----2--2--2--9--9--|-----9--9--9--9--9--9--9--|
D|--2--2-----2--2--2--9--9--|-----9--9--9--9--9--9--9--|
A|--0--0-----0--0--0--7--7--|-----7--7--7--7--7--7--7--|
E|--------------------------|--------------------------|

E|--------------------------|--------------------------|
B|--------------------------|--------------------------|
G|--6--6-----6--6--6--4--4--|-----4--4--4--4--4--4--4--|
D|--6--6-----6--6--6--4--4--|-----4--4--4--4--4--4--4--|
A|--4--4-----4--4--4--2--2--|-----2--2--2--2--2--2--2--|
E|--------------------------|--------------------------|


VERSE

(Rest 6 Measures)

E|--------------------------|--------------------------|
B|--------------------------|--------------------------|
G|--------------------4--4--|-----4--4--4--4--4--4--4--|
D|--2--2-----2--2--2--4--4--|-----4--4--4--4--4--4--4--|
A|--2--2-----2--2--2--2--2--|-----2--2--2--2--2--2--2--|
E|--0--0-----0--0--0--------|--------------------------|

(Rest 6 Measures)

E|--------------------------|--------------------------|
B|--------------------------|--------------------------|
G|--------------------4--4--|-----4--4--4--4--4--------|
D|--2--2-----2--2--2--4--4--|-----4--4--4--4--4--------|
A|--2--2-----2--2--2--2--2--|-----2--2--2--2--2--------|
E|--0--0-----0--0--0--------|--------------------------|


CHORUS

E|--------------------------|--------------------------|
B|--------------------------|--------------------------|
G|--2--2-----2--2--2--9--9--|-----9--9--9--9--9--9--9--|
D|--2--2-----2--2--2--9--9--|-----9--9--9--9--9--9--9--|
A|--0--0-----0--0--0--7--7--|-----7--7--7--7--7--7--7--|
E|--------------------------|--------------------------|

E|--------------------------|--------------------------|
B|--------------------------|--------------------------|
G|--6--6-----6--6--6--4--4--|-----4--4--4--4--4--4--4--|
D|--6--6-----6--6--6--4--4--|-----4--4--4--4--4--4--4--|
A|--4--4-----4--4--4--2--2--|-----2--2--2--2--2--2--2--|
E|--------------------------|--------------------------|

(Repeat)


POST-CHORUS
(Same as Chorus)


VERSE

  (Palm Mute Single Notes)
E|--------------------------|--------------------------|
B|--------------------------|--------------------------|
G|--------------------------|--------------------------|
D|--------6-----------2--2--|--------------2-----------|
A|--4--4--4--4--4--4--0--0--|-----0--0--0--0--0--0--0--|
E|--------------------------|--------------------------|

E|--------------------------|--------------------------|
B|--------------------------|--------------------------|
G|--------------------------|--------------------------|
D|--------------------4--4--|--------------4-----------|
A|--------2-----------2--2--|-----2--2--2--2--2--2--2--|
E|--0--0--0--0--0--0--------|--------------------------|

E|--------------------------|--------------------------|
B|--------------------------|--------------------------|
G|--------------------------|--------------------------|
D|--------6-----------2--2--|--------------2-----------|
A|--4--4--4--4--4--4--0--0--|-----0--0--0--0--0--0--0--|
E|--------------------------|--------------------------|

E|--------------------------|--------------------------|
B|--------------------------|--------------------------|
G|--------------------4--4--|-----4--4--4--4--4--4--4--|
D|--2--2-----2--2--2--4--4--|-----4--4--4--4--4--4--4--|
A|--2--2-----2--2--2--2--2--|-----2--2--2--2--2--2--2--|
E|--0--0-----0--0--0--------|--------------------------|

E|--------------------------|--------------------------|
B|--------------------------|--------------------------|
G|--------------------------|--------------------------|
D|--------6-----------2--2--|--2-----2-----------2-----|
A|--4--4--4--4--4--4--0--0--|--0--0--0--0--0--0--0--0--|
E|--------------------------|--------------------------|

E|--------------------------|--------------------------|
B|--------------------------|--------------------------|
G|--------------------------|--------------------------|
D|--------------------4--4--|--4-----4-----------4-----|
A|--------2-----------2--2--|--2--2--2--2--2--2--2--2--|
E|--0--0--0--0--0--0--------|--------------------------|

E|--------------------------|--------------------------|
B|--------------------------|--------------------------|
G|--------------------------|--------------------------|
D|--------6-----------2--2--|--2-----2-----------2-----|
A|--4--4--4--4--4--4--0--0--|--0--0--0--0--0--0--0--0--|
E|--------------------------|--------------------------|

E|--------------------------|--------------------------|
B|--------------------------|--------------------------|
G|--------------------4--4--|-----4--4--4--4--4--4--4--|
D|--2--2-----2--2--2--4--4--|-----4--4--4--4--4--4--4--|
A|--2--2-----2--2--2--2--2--|-----2--2--2--2--2--2--2--|
E|--0--0-----0--0--0--------|--------------------------|


PRE-CHORUS

E|--------------------------|--------------------------|
B|--------------------------|--------------------------|
G|--6--------2--------4L----|-(4)----------------------|
D|--6--------2--------4L----|-(4)----------------------|
A|--4--------0--------2L----|-(2)----------------------|
E|--------------------------|--------------------------|


CHORUS
(Same as Before)


INTERLUDE

E|--------------------------|--------------------------|
B|--------------------------|--------------------------|
G|--------------------------|--------------------------|
D|--2--2--2--2--2--2--------|--------------------------|
A|--0--0--0--0--0--0--2--2--|--2--2--2--2--2--2--2--2--|
E|--------------------0--0--|--0--0--0--0--0--0--0--0--|

E|--------------------------|--------------------------|
B|--------------------------|--------------------------|
G|--------------------------|--------------------------|
D|--6--6--6--6--6--6--4--4--|--4--4--4--4--4--4--4--4--|
A|--4--4--4--4--4--4--2--2--|--2--2--2--2--2--2--2--2--|
E|--------------------------|--------------------------|

(Repeat)


BRIDGE
(Rest 12 Measures)


VIOLIN SOLO
(Same as Guitar 1's Violin Solo)


PRE-CHORUS
(Rest 4 Measures)


CHORUS
(Same as Before


INTERLUDE
(Same as Before)


OUTRO

E|--------------------------|--------------------------|
B|--------------------------|--------------------------|
G|--2--2--------------------|--------------------------|
D|--2--2--------------2--2--|--------------2--2--2--2--|
A|--0--0--------------2--2--|--------------2--2--2--2--|
E|--------------------0--0--|--------------0--0--0--0--|

E|--------------------------|--------------------------|
B|--------------------------|--------------------------|
G|--6--6--------------4--4--|--------------4--4--4--4--|
D|--6--6--------------4--4--|--------------4--4--4--4--|
A|--4--4--------------2--2--|--------------2--2--2--2--|
E|--------------------------|--------------------------|

(Repeat)





KEY:
L = Loop





Comments


Popular Yellowcard tabs & chords
Ocean Avenue 2 Bass Tabs
5 Becomes 4 Chords
One Year Six Months 2 Chords
Back Home 1 Tabs
Only One 5 Tabs
Rocket 3 Tabs
Rough Draft Tabs
Rough Landing Holly 4 Tabs
Three Flights Up Tabs
Two Weeks From Twenty 2 Tabs


Song lyrics



↑ Back to top | Tablatures and chords are parodies/interpretations of the original songs. You may use it for private study, scholarship, research or language learning purposes only
© 2014 AZChords.com Contact us | Privacy policy | DMCA | Add/correct tabs | Request tabs | Top 50 tabs