» » »

Waves Tabs (ver.1)

Artists:  A B C D E F G H I J K L M N O P Q R S T U V W X Y Z # 

Waves Tabs (ver.1)

Yeasayer
Rating:
5/5 (2 votes)

Hard to play? Try these video lessons and learn fast.
                                 |-------------------------|
                 |         WAVES           |
                 |                         |
                 |      by Yeasayer        |
                 |                         |
                 | from "All Hour Cymbals" |
                 |-------------------------|



--------PART 1: To get that drone like sound, repeatedly pluck the open D string:

e|--------------------------|
B|--------------------------|
G|--------------------------|
D|-0-0-0-0-0-0-0-0-etc...---|
A|--------------------------|
E|--------------------------|

--------PART 2: Guitar riff playing under vocals:

Riff 1:

e|-------------------------------------------------|
B|-------------------------------------------------|
G|-11-11s12--9-9s11--11----------------------------|
D|----------------------12-10-10h12p10--5-5h7--5---|
A|-------------------------------------------------|
E|-------------------------------------------------|

Riff 2:

e|-----------------------|-------------------|
B|-----------------------|-------------------|
G|-----------------------|-------------------|
D|-5-5h7-5-5-/10\5-/10\5-|-5-5h7-5-5-7-5-7-5-|
A|-----------------------|-------------------|
E|-----------------------|-------------------|

--------PART 3: Final guitar riff after brief interlude:


e|---------7--7---------------------|
B|-7-7---7-------8--/10--8-10-9-8---|
G|----------------------------------|
D|----------------------------------|
A|----------------------------------|
E|----------------------------------|

| /  slide up
| \  slide down
| h  hammer-on
| p  pull-off
| s  slide to

======================================================
            
Hard to play? Try these video lessons and learn fast. | Correct




comments powered by Disqus
↑ Back to top | Tablatures and chords are parodies/interpretations of the original songs. You may use it for private study, scholarship, research or language learning purposes only