» » »

Sunrise Bass tabs (ver.1)

Artists:  A B C D E F G H I J K L M N O P Q R S T U V W X Y Z # 

Sunrise Bass tabs (ver.1)

Yeasayer
Rating:
5/5 (1 vote)

Hard to play? Try these video lessons and learn fast.
                
Please rate this tab :)

G|------------------|
D|------------------|
A|------------------|
E|------0-----------|


VERSE AND CHORUS

G|----------------------|
D|----------------------|
A|--7---------------5h7-|
E|------0-----5-5-7-----|


SECOND VERSE


G|---------------------7-------------7-76----------|
D|-----------5-7---7/9--7/9-9----7h9------75-------|
A|--7----------------------------------------757---|
E|-----------------------------------------------0-|

G|-------------------7-7h9-7--7------7----------------|
D|---------------7-9------------9------97-------------|
A|-7-9-10-10-9-7------------------10-----10-9-7-------|
E|------------------------------------------------0---|



G|---------------------------------------|
D|--57-7-5-7---5---------------5---------|
A|-7--------------7--------------7-5-----|
E|-----------------------7-----------5-8-|

There's a fill just after that and before the chorus, but I 
can't work it out, so I suggest you just do something involving
some of the same notes as above :P

What I like to do:

G|----------------|
D|----------------|
A|------5-75------|
E|--578-----8-5-0-|

I generally don't like to waffle, but you can hear he jumps up
with the next variation (below), so it's gotta be descending here.



VARIATION (this is the first chorus after the above section)

G|-----------------|
D|-----------------|
A|----5-7------5h7-|
E|--7------5-7-----|



BREAKDOWN BIT:

G|--------------|
D|--------------|
A|--7777-7-7777-|
E|--------------| 


VARIATION IN BREAKDOWN:

G|--------------------|
D|--------------------|
A|--7777--7-7-----5---|
E|------------5h7-----| 

Lots of slight variations on this bit. I suggest listening and
getting in the groove.


The most important thing here is timing - I've done my best to illustrate
what to play but because of that second verse you'll probably have to 
spend some time getting timing right.
            
Hard to play? Try these video lessons and learn fast. | Correct




comments powered by Disqus
↑ Back to top | Tablatures and chords are parodies/interpretations of the original songs. You may use it for private study, scholarship, research or language learning purposes only