» » »

Red Cave Tabs (ver.1)

Artists:  A B C D E F G H I J K L M N O P Q R S T U V W X Y Z # 

Red Cave Tabs (ver.1)

Yeasayer
Rating:
0/5 (0 votes)

Hard to play? Try these video lessons and learn fast.
                (Intro)
Yeasayer Red Cave Intro

Its a close as  can hear it from the CD, just a quick attempt and a rough guide,
Tuning open D (DADf#AD)
Its all loosely based around a G chord playing around on the 2nd or high A string,
Please let me know if you get a closer/better way of playing this song



 D----0-----0\---0---0---x--x---0--x--x--|
 A----2-----5\---2---x---x--x---x--x--x--|
 f#---5-----4\3--1---1---1--1---1--1--1--|
 D----0-----0\---0---0---0--0---0--0--0--|
 A----0-----5\---0---x---x--x---x--x--x--|
 D----5-----x\---x---x---x--x---x--x--x--|


 D---0---0--0--0---0--0--0---0x-0x-0-0-0-|
 A---5---5--5--5\--x--x--x---3x-3x-2-0-0-|
 f#--0---0--0--0---1--1--1---1x-1x-1-3-1-|
 D---0---0--0--0---0--0--0---0x-0x-0-0-0-|
 A---x---x--x--x---x--x--x---xx-xx-x-x-x-|
 D---x---x--x--x---x--x--x---xx-xx-x-x-x-|


 D---0--0--0---0--0--0---0--0--0--0--0--0-|
 A---2--3--5---5--7--5---3--3--2--x--x--x-|
 f#--0--0--0---0--0--0---1--1--1--1--3--1-|
 D---0--0--0---0--0--0---0--0--0--0--0--0-|
 A---x--x--x---x--x--x---x--x--x--x--x--x-|
 D---x--x--x---x--x--x---x--x--x--x--x--x-|
            
Hard to play? Try these video lessons and learn fast. | Correct




comments powered by Disqus
↑ Back to top | Tablatures and chords are parodies/interpretations of the original songs. You may use it for private study, scholarship, research or language learning purposes only