» » »

Ambling Alp Bass tabs (ver.2)

Artists:  A B C D E F G H I J K L M N O P Q R S T U V W X Y Z # 

Ambling Alp Bass tabs (ver.2)

Yeasayer
Rating:
5/5 (1 vote)

Hard to play? Try these video lessons and learn fast.
                This is only part of the song, but I haven't seen any bass tabs for Ambling Alp 
anywhere so I figure this is better than nothing.

G|-12-12-12----------12-12-12----------|
D|----------14-14-14----------14-14-14-|
A|-------------------------------------|
E|-------------------------------------|

G|-12-12-12----------14-14-14----------|
D|----------14-14-14----------14-14-14-|
A|-------------------------------------|
E|-------------------------------------|

G|-12-12-12----------------------------|
D|----------14-14-14-12-12-12----------|
A|----------------------------15-15-15-|
E|-------------------------------------|

G|-12-12-12----------------------------|
D|----------14-14-14-12-12-12----------|
A|----------------------------15-15-15-|
E|-------------------------------------|
            
Hard to play? Try these video lessons and learn fast. | Correct




comments powered by Disqus
↑ Back to top | Tablatures and chords are parodies/interpretations of the original songs. You may use it for private study, scholarship, research or language learning purposes only