» » »

Yeah Yeah Yeahs, Yeah New York Tabs (ver.1)

Artists:  A B C D E F G H I J K L M N O P Q R S T U V W X Y Z # 

Yeah New York Tabs (ver.1)

Yeah Yeah Yeahs Tabs
 Rating:
4/5 (4 votes)
Yeah New York lessons Tabs too difficult? Try these video lessons and learn fast
1
                Track: 12 (Bonus Track)
Tuning: Down half a step


Intro:

   "Yeah! New York, Yeah Manhattan..."
e|-20--20--20--20|
B|---------------|
G|---------------|  X8
D|---------------|
A|---------------|
E|---------------|

e|-20-20-20-0-0-0-0--|
B|-------------------|
G|-------------------|
D|-------------------|
A|-------------------|
E|-------------------|


Part 1:

e|---------------------------------------------------------------------------
B|---------------------------------------------------------------------------
G|---------------------------------------------------------------------------
D|-------4-4-4-4-4-4-4-------4-4-4-4-4-4-4------------------h-----4-4--------
A|-11/12-4-4-4-4-4-4-4---7/9-4-4-4-4-4-4-4--6/7--7-7-7-7-7-7-7-9--4-4--------
E|-------2-2-2-2-2-2-2-------2-2-2-2-2-2-2------------------------2-2--------

e|-------------------------------------------------------------------2-------
B|-------------------------------------------------------------------2-------
G|-------------------------------------------------------------------2-------
D|-------4-4-4-4-4-4-4-------4-4-4-4-4-4-4------------------h-----4----------
A|-11/12-4-4-4-4-4-4-4---7/9-4-4-4-4-4-4-4--6/7--7-7-7-7-7-7-7-9--4----------
E|-------2-2-2-2-2-2-2-------2-2-2-2-2-2-2------------------------2----------

Verse:
        "Red Hair.....Pink Eyes........owwwwwwwweeee........Good-bye!"...
e|---------------------------------------------------------------------|
B|---------------------------------------------------------------------|
G|-----------------------------------------------------------14---11---|
D|-4-4-4---------4-4-4---------7/9-9-9----------------4-4-4------------|
A|-4-4-4---------4-4-4---------7/9-9-9----------------4-4-4------------|
E|-2-2-2---------2-2-2---------5/7-7-7----------------2-2-2------------|


e|---------------------------------------------------------------------|
B|-----------------------------------------------------------14---11---|
G|---------------------------------------------------------------------|
D|-4-4-4---------4-4-4---------7/9-9-9----------------4-4-4------------|
A|-4-4-4---------4-4-4---------7/9-9-9----------------4-4-4------------|
E|-2-2-2---------2-2-2---------5/7-7-7----------------2-2-2------------|

Part 3:

e|----------------------------------------------------------------------|
B|----------------------------------------------------------------------|
G|--11---11---11---11---14----14----14----14----------------------------|
D|----------------------------------------------------------------------|
A|-----9----9----9----9----12----12----12----12-------------------------|
E|----------------------------------------------------------------------|

Verse:

        
e|---------------------------------------------------------------------|
B|---------------------------------------------------------------------|
G|-----------------------------------------------------------14---11---|
D|-4-4-4---------4-4-4---------7/9-9-9----------------4-4-4------------|
A|-4-4-4---------4-4-4---------7/9-9-9----------------4-4-4------------|
E|-2-2-2---------2-2-2---------5/7-7-7----------------2-2-2------------|
 
        
e|---------------------------------------------------------------------|
B|---------------------------------------------------------------------|
G|-----------------------------------------------------------14---11---|
D|-4-4-4---------4-4-4---------7/9-9-9----------------4-4-4------------|
A|-4-4-4---------4-4-4---------7/9-9-9----------------4-4-4------------|
E|-2-2-2---------2-2-2---------5/7-7-7----------------2-2-2------------|

Bridge:
e|------------------------------------------------------------------------|
B|------------------------------------------------------------------------|
G|--11---11---11---11---14----14----14----14----4-4-4--4-4-4--4-4-4--4-4-4|
D|----------------------------------------------4-4-4--4-4-4--4-4-4--4-4-4|
A|-----9----9----9----9----12----12----12----12-2-2-2--2-2-2--2-2-2--2-2-2|
E|------------------------------------------------------------------------|

Intro:

"Yeah! New York, Yeah Manhattan..."
e|-20--20--20--20|
B|---------------|
G|---------------|  X8
D|---------------|
A|---------------|
E|---------------|


e|-20-20-20-0-0-0-0--|
B|-------------------|
G|-------------------|
D|-------------------|
A|-------------------|
E|-------------------|

Part 1:

e|---------------------------------------------------------------------------
B|---------------------------------------------------------------------------
G|---------------------------------------------------------------------------
D|-------4-4-4-4-4-4-4-------4-4-4-4-4-4-4------------------h-----4-4--------
A|-11/12-4-4-4-4-4-4-4---7/9-4-4-4-4-4-4-4--6/7--7-7-7-7-7-7-7-9--4-4--------
E|-------2-2-2-2-2-2-2-------2-2-2-2-2-2-2------------------------2-2--------

e|-------------------------------------------------------------------2-------
B|-------------------------------------------------------------------2-------
G|-------------------------------------------------------------------2-------
D|-------4-4-4-4-4-4-4-------4-4-4-4-4-4-4------------------h-----4----------
A|-11/12-4-4-4-4-4-4-4---7/9-4-4-4-4-4-4-4--6/7--7-7-7-7-7-7-7-9--4----------
E|-------2-2-2-2-2-2-2-------2-2-2-2-2-2-2------------------------2----------

Verse:
        "Red Hair.....Pink Eyes........owwwwwwwweeee........Good-bye!"...
e|---------------------------------------------------------------------|
B|---------------------------------------------------------------------|
G|-----------------------------------------------------------14---11---|
D|-4-4-4---------4-4-4---------7/9-9-9----------------4-4-4------------|
A|-4-4-4---------4-4-4---------7/9-9-9----------------4-4-4------------|
E|-2-2-2---------2-2-2---------5/7-7-7----------------2-2-2------------|


e|---------------------------------------------------------------------|
B|-----------------------------------------------------------14---11---|
G|---------------------------------------------------------------------|
D|-4-4-4---------4-4-4---------7/9-9-9----------------4-4-4------------|
A|-4-4-4---------4-4-4---------7/9-9-9----------------4-4-4------------|
E|-2-2-2---------2-2-2---------5/7-7-7----------------2-2-2------------|

Ending:
                              "Goodbye now"...
e|-----------------------------------------------------|
B|-----------------------------------------------------|
G|--11---11---11---11---14----14----14----14----4-4-4--|
D|----------------------------------------------4-4-4--|
A|-----9----9----9----9----12----12----12----12-2-2-2--|
E|-----------------------------------------------------|




| /  slide up
| \  slide down
| h  hammer-on
| p  pull-off
| ~  vibrato
| +  harmonic
| x  Mute note
            
Submit corrections

comments powered by Disqus
↑ Back to top | Yeah Yeah Yeahs Tabs for Yeah New York. Lyrics for acoustic guitar and electric guitar. 1 Tablatures and chords are parodies/interpretations of the original songs. You may use it for private study, scholarship, research or language learning purposes only