» » »

Yeah Yeah Yeahs, Rich Tabs (ver.2)

Artists:  A B C D E F G H I J K L M N O P Q R S T U V W X Y Z # 

Rich Tabs (ver.2)

Yeah Yeah Yeahs Tabs
 Rating:
4/5 (4 votes)
Rich lessons Tabs too difficult? Try these video lessons and learn fast
1
                Yeah Yeah Yeahs
Fever to Tell
Rich

Intro
E|--------------------------15-15-------17-17-20-17-20-------|
B|--------15-15-------------------14-14----------------------|
G|--------------14-14----------------------------------------|
D|--14-14-------------14-14----------------------------------|
A|-----------------------------------------------------------|
E|-----------------------------------------------------------|

Verse (with intro)         
E|-----------------------------------------------------------|
B|-----------------------------------------------------------|
G|-----------------------------------------------------------|
D|-----------------------------------------------------------|
A|--2--2--------9--9--------5--5--------4--4-----------------|
E|--0--0--------7--7--------3--3--------2--2-----------------|

E|-----------------------------------------------------------|
B|-----------------------------------------------------------|
G|-----------------------------------------------------------|
D|--------------------------------------7--7-----------------|
A|--2--2--------9--9--------5--5--------5--5-----------------|
E|--0--0--------7--7--------3--3-----------------------------|


Chorus
E|-----------------------------------------------------------|
B|-----------------------------------------------------------|
G|-----------------------------------------------------------|
D|--9-9-9-9-9-9-9-9-9-9-9-9-9-9-9-9-99-12-12-12-12-12-12-12--|
A|--7-7-7-7-7-7-7-7-7-7-7-7-7-7-7-7-77-12-12-12-12-12-12-12--|
E|-----------------------------------------------------------|


E|-----------------------------------------------------------|
B|-----------------------------------------------------------|
G|-----------14-14-14-14-14-14-------------------------------|
D|--12-12-12-12-12-12-12-12-12-4-4-4-4-4-4-4-4-2-2-2-2-7-7---|
A|--10-10-10-10-10-10-10-10-10-2-2-2-2-2-2-2-2-0-0-0-0-5-5---|
E|-----------------------------------------------------------|


E|-----------------------------------------------------------|
B|-----------------------------------------------------------|
G|-----------------------------------------------------------|
D|--7-7-9-9-9-9-9-9-9-9-9-9-9-9------------------------------|
A|--5-5-7-7-7-7-7-7-7-7-7-7-7-7-5---5------------------------|
E|------------------------------3---3------------------------|

Other bit
E|-----------------------------------------------------------|
B|-----3-3-3-3-3-3-3-3-3-3-3-3-3-----------------------------|
G|-----------------------------------------------------------|
D|-----------------------------------------------------------|
A|-----------------------------------------------------------|
E|--0----------------------------0---------------------------|

Outro (with intro)
E|--------------------------15-15-------17-17-20-17-20-------|
B|--------15-15-------------------14-14----------------------|
G|--------------14-14----------------------------------------|
D|--14-14-------------14-14----------------------------------|
A|--------------------------------(continues throughout)-----|
E|-----------------------------------------------------------|


E|-----------------------------------------------------------|
B|--19-19-19-19-19-19-19-19-19-20-20-20-20-20-20-20-20-(x-2)-|
G|-----------------------------------------------------------|
D|-----------------------------------------------------------|
A|-----------------------------------------------------------|
E|-----------------------------------------------------------|

(Changes after two of first bit)
E|--19-19-------19-19-------17-17-------17-17----------------|
B|--------20-20-------20-20-------19-19-------19-19----------|
G|-----------------------------------------------------------|
D|-----------------------------------------------------------|
A|-----------------------------------------------------------|
E|-----------------------------------------------------------|

(When drums cut out it goes to this)
E|--------19-19-------19-19-17-17-------17-17----------------|
B|--20-20-------20-20-------------19-19-------19-19----------|
G|-----------------------------------------------------------|
D|-----------------------------------------------------------|
A|-----------------------------------------------------------|
E|-----------------------------------------------------------|
            
Submit corrections

comments powered by Disqus
↑ Back to top | Yeah Yeah Yeahs Tabs for Rich. Lyrics for acoustic guitar and electric guitar. 1 Tablatures and chords are parodies/interpretations of the original songs. You may use it for private study, scholarship, research or language learning purposes only