» » »

Our Time Tabs (ver.1)

Artists:  A B C D E F G H I J K L M N O P Q R S T U V W X Y Z # 

Our Time Tabs (ver.1)

Yeah Yeah Yeahs
Rating:
0/5 (0 votes)

Hard to play? Try these video lessons and learn fast.
                All this song is based on two power chords, G and D.. corrections?


Struming:
   D                  G
|------------------------------|
|------------------------------|
|------------------------------|
|--12--12-------------5--5-----|
|--12--12-------------5--5-----|
|--10--10-------------3--3-----|

There's one part that he plays:

   D                  G
|------------------------------|
|------------------------------|
|------------------------------|
|--12--12-------------17--17---|
|--12--12-------------17--17---|
|--10--10-------------15--15---|

Picking:

   D                   G
|--------------11---------------3-----|
|-------------------------------------|
|-------------------------------------|
|----------12----------------5-----5--|
|------12----------12-----5-----------|
|--10------------------3--------------|
            
Hard to play? Try these video lessons and learn fast. | Correct




comments powered by Disqus
↑ Back to top | Tablatures and chords are parodies/interpretations of the original songs. You may use it for private study, scholarship, research or language learning purposes only