» » »

Modern Things Tabs (ver.3)

Artists:  A B C D E F G H I J K L M N O P Q R S T U V W X Y Z # 

Modern Things Tabs (ver.3)

Yeah Yeah Yeahs
Rating:
5/5 (1 vote)

Tabs too difficult? Try these video lessons and learn fast.
                ------------------------------------------------------------------------------
                             Modern Things – Yeah Yeah Yeahs
------------------------------------------------------------------------------

Tuning: Standard

Intro

e|-0-0-0--0-0-----0-0-0--0-0-------------------------------------------------|
B|-1-1-1--1-1-----1-1-1--1-1-------------------------------------------------|
G|-2-2-2--0-0-----2-2-2--0-0-------------------------------------------------|
D|-2-2-2--2-2-----2-2-2--2-2-------------------------------------------------|
A|-0-0-0--0-3-----0-0-0--0-3-------------------------------------------------|
E|-0-0-0--0-0-----0-0-0--0-0-------------------------------------------------|

Verse: 00:08
X4

e|-0-0-0--0-0----------------------------------------------------------------|
B|-1-1-1--1-1----------------------------------------------------------------|
G|-2-2-2--0-0----------------------------------------------------------------|
D|-2-2-2--2-2---X\10---------------------------------------------------------|
A|-0-0-0--3-3---X\10---------------------------------------------------------|
E|-0-0-0--0-0---X\10---------------------------------------------------------|

Verse pt.2: 00:26 (Palm Muted)
X4

e|X--------------------------------------------------------------------------|
B|X--------------------------------------------------------------------------|
G|X--------------------------------------------------------------------------|
D|X-------7-------7--------5--2------5--2------------------------------------|
A|X----------0-0----0--33---------3------------------------------------------|
E|X---5----------------------------------------------------------------------|

Verse: 00:42
X4

e|-0-0-0--0-0----------------------------------------------------------------|
B|-1-1-1--1-1----------------------------------------------------------------|
G|-2-2-2--0-0----------------------------------------------------------------|
D|-2-2-2--2-2----------------------------------------------------------------|
A|-0-0-0--3-3----------------------------------------------------------------|
E|-0-0-0--0-0----------------------------------------------------------------|

Chorus pt.: 1:08
X4

e|-----------------------------------------------------------------------------|
B|-----------------------------------------------------------------------------|
G|-----------------------------------------------------------------------------|
D|---------------------------5\------------------------------------------------|
A|----------3333^---5555^---------8-8--m8—-m8---8-8----------------------------|
E|--5555^------------------------1010-m10-m10--1010----------------------------|

Chorus pt. 2: 1:26
X4

e|X--------------------------------------------------------------------------|
B|X--------------------------------------------------------------------------|
G|X--------------------------------------------------------------------------|
D|X--------------------------------------------------------------------------|
A|X----7------7----------5-2-----5-2-----------------------------------------|
E|X--0--0--0---0-----33-------3----------------------------------------------|

Verse: 1:42
X4

e|-0-0-0--0-0---0-0----------------------------------------------------------|
B|-1-1-1--1-1---1-1----------------------------------------------------------|
G|-2-2-2--0-0---0-0----------------------------------------------------------|
D|-2-2-2--2-2---2-2----------------------------------------------------------|
A|-0-0-0--3-3---3-3----------------------------------------------------------|
E|-0-0-0--0-0---0-0----------------------------------------------------------|

Chorus: 2:14
X4

Outro (Same as verse pt. 2 but a note is taken out and no palm muting)
X4

e|--------------------------------------------------------------------------|
B|--------------------------------------------------------------------------|
G|--------------------------------------------------------------------------|
D|-------7-------7--------5--2------5--2------------------------------------|
A|----------0-0----0--3---------3-------------------------------------------|
E|---5----------------------------------------------------------------------|

| \  slide down
| x  Palm Muted
| M  Mute note
| ^  Tremolo Pick
=========================================================================
            
Tabs too difficult? Try these video lessons and learn fast.




comments powered by Disqus
↑ Back to top | Tablatures and chords are parodies/interpretations of the original songs. You may use it for private study, scholarship, research or language learning purposes only