» » »

Modern Romance Tabs (ver.2)

Artists:  A B C D E F G H I J K L M N O P Q R S T U V W X Y Z # 

Modern Romance Tabs (ver.2)

Yeah Yeah Yeahs
Rating:
3/5 (1 vote)

Hard to play? Try these video lessons and learn fast.
                                intro
e----------------------------------|
b----------------------------------|
g----------------------------------|
d--7-7-7-7-7-7-9-6-7-7-7-7-7-7-6-9-| 4x
a--7-7-7-7-7-7-7-7-7-7-7-7-7-7-7-7-|
e----------------------------------|
                              verse
e------------------------------------------------------------------|
b------------------------------------------------------------------|
g------------------------------------------------------------------|
d--7-7-7-7-7-7-6-9-7-7-7-7-7-7-9-6-7-7-7-7-7-7-6-9-7-7-7-7-7-7-9-6-|
a--7-7-7-7-7-7-7-7-7-7-7-7-7-7-7-7-7-7-7-7-7-7-7-7-7-7-7-7-7-7-7-7-|
e------------------------------------------------------------------|

e------------------------------------------------------------------|
b------------------------------------------------------------------|
g------------------------------------------------------------------|
d--7-7-7-7-7-7-9-6-7-7-7-7-7-7-6-9-7-7-7-7-7-7-9-6-7-7-7-7-7-7-6-9-|
a--7-7-7-7-7-7-7-7-7-7-7-7-7-7-7-7-7-7-7-7-7-7-7-7-7-7-7-7-7-7-7-7-|
e------------------------------------------------------------------|

e------------------------------------------------------------------|
b------------------------------------------------------------------|
g------------------------------------------------------------------|
d--7-7-7-7-7-7-9-6-7-7-7-7-7-7-6-9-7-7-7-7-7-7-9-6-7-7-7-7-7-7-9-6-|
a--7-7-7-7-7-7-7-7-7-7-7-7-7-7-7-7-7-7-7-7-7-7-7-7-7-7-7-7-7-7-7-7-|
e------------------------------------------------------------------|

e------------------------------------------------------------------|
b------------------------------------------------------------------|
g------------------------------------------------------------------|
d--7-7-7-7-7-7-9-6-7-7-7-7-7-7-9-6-7-7-7-7-7-7-9-6-7-7-7-7-7-7-6-9-|
a--7-7-7-7-7-7-7-7-7-7-7-7-7-7-7-7-7-7-7-7-7-7-7-7-7-7-7-7-7-7-7-7-|
e------------------------------------------------------------------|
            
Hard to play? Try these video lessons and learn fast. | Correct




comments powered by Disqus
↑ Back to top | Tablatures and chords are parodies/interpretations of the original songs. You may use it for private study, scholarship, research or language learning purposes only