» » »

Gold Lion Tabs (ver.1)

Artists:  A B C D E F G H I J K L M N O P Q R S T U V W X Y Z # 

Gold Lion Tabs (ver.1)

Yeah Yeah Yeahs
Rating:
5/5 (9 votes)

Hard to play? Try these video lessons and learn fast.
                This is a pretty easy song and you can figure out the strumming yourself.

Standard Tuning

Chords:

    F#   A    E    A
e|--2----5----0----0--|
B|--2----5----0----2--|
G|--3----6----1----2--|
D|--4----7----2----2--|
A|--4----7----2----0--|
E|--2----5----0----0--|


F#         A                                E  A
Gold Lion, Gonna show me where the light is

F#         A                               E  A
Gold Lion, Gonna show me where the light is

F#         A                  E  A
Take our hands out of control

F#          A             E   A
Take our hands out of control


     F#                    A
Now, tell me what you saw, tell me what you saw,
E             A
there was a crowd of Sikhs in each

F#           A     E               A
In-side, out-side, I must have done a dirt in each

F#          A           E                     A
It was the hive I grew, the weight of the shell is crushing you

F#           A           E                     A
I’ve been a round a few, tell them what I saw, I’ll them what yer…

F#          A             E             A
Oo! Oo!, Oo! Oo!, Oo! Oo! Ah oh!

F#          A             E             A
Oo! Oo!, Oo! Oo!, Oo! Oo! Ah oh!

Solo:

e|--14----12----------12--------------------------------------------|
B|--------------14----------14----12----------------------12--------|
G|--------------------------------------14----11----14--------------|
D|------------------------------------------------------------------|
A|------------------------------------------------------------------|
E|------------------------------------------------------------------|

e|--14----12----------12--------------------------------------------|
B|--------------14----------14----12--------------------------------|
G|--------------------------------------14----11----14----9---/11~--|
D|------------------------------------------------------------------|
A|------------------------------------------------------------------|
E|------------------------------------------------------------------|

(Note: there is the background guitar for the next following chords.  Listen to the song 
find out when you come in.)

Background Guitar:

e|---------------------------------------------------------|
B|---------------------------------------------------------|
G|---------------------------------------------------------|
D|---------------------------------------------------------|
A|--------------------/4----2------/7----4-----------------|
E|--2-----4----5--------------------------------5----4-----|

e|---------------------------------------------------------|
B|---------------------------------------------------------|
G|---------------------------------------------------------|
D|---------------------------------------------------------|
A|--------------------/4----2--------/7--------------------|
E|--2-----4----5----------------------------5----5--4--2---|


F#         A                                E    A
Gold Lion, Gonna tell me where the light is

F#         A                                E    A
Gold Lion, Gonna tell me where the light is

F#              A            E       A
Take our hands out of control

F#             A           E      A
Take our hands out of control

 F#         A      E           A
Out-side, in-side, this is a moon without a tide

F#             A    E               A
We’ll build a fire, in your eyes, we’ll build a fire

    F#       A            E            A
when the colours are getting brighter

F#           A             E             A
Cold desire, it’s a moon without a tide

F#               A        E                     A
                         tell me what you saw, I’ll tell you what I saw

F#          A             E             A
Oo! Ooo!, Oo! Ooo!, Oo! Ooo! Ah oh!

F#          A             E             A
Oo! Ooo!, Oo! Ooo!, Oo! Ooo! Ah oh!

Solo:

e|--14----12----------12--------------------------------------------|
B|--------------14----------14----12----------------------12--------|
G|--------------------------------------14----11----14--------------|
D|------------------------------------------------------------------|
A|------------------------------------------------------------------|
E|------------------------------------------------------------------|

e|--14----12----------12--------------------------------------------|
B|--------------14----------14----12--------------------------------|
G|--------------------------------------14----11----14----9---/11~--|
D|------------------------------------------------------------------|
A|------------------------------------------------------------------|
E|------------------------------------------------------------------|

Outro at end of song:

e|----------------------------------------12------------------------|
B|--------------------------14--12------------14--------------------|
G|--11--------13--14------------------------------------14--13------|
D|------------------------------------------------------------------|
A|------------------------------------------------------------------|
E|------------------------------------------------------------------|

F#          A             E             A
Oo! Ooo!, Oo! Ooo!, Oo! Ooo! Ah oh!

F#          A             E             A
Oo! Ooo!, Oo! Ooo!, Oo! Ooo! Ah oh!
            
Hard to play? Try these video lessons and learn fast. | Correct




comments powered by Disqus
↑ Back to top | Tablatures and chords are parodies/interpretations of the original songs. You may use it for private study, scholarship, research or language learning purposes only