» » »

Art Star Tabs (ver.2)

Artists:  A B C D E F G H I J K L M N O P Q R S T U V W X Y Z # 

Art Star Tabs (ver.2)

Yeah Yeah Yeahs
Rating:
0/5 (0 votes)

Hard to play? Try these video lessons and learn fast.
                -------------------------------------------------------------------------------
                             ART STAR - Yeah Yeah Yeahs
-------------------------------------------------------------------------------

Tuning:Drop D    DBGDAE

vERSE (Clean/Reverb): 
                                                                            x8
e|---------------------------------------------------------------------------|
B|---------------------------------------------------------------------------|
G|---------------------------------------------------------------------------|
D|---------------------------------------------------------------------------|
A|-----7----------7----7-----------------------------------------------------|
D|-7-7---7-10-10----10-------------------------------------------------------|


CHORUS (Distortion): (X4) 
(Rythm)
          x5          x2        x3                                                           
e|---------|-----------|---------|-------------------------------------------|
B|---------|-----------|---------|-------------------------------------------|
G|---------|-----------|---------|-------------------------------------------|
D|-7-7-7-7-|---5-5-5-5-|-7-7-7-7-|-------------------------------------------|
A|-7-7-7-7-|---5-5-5-5-|-7-7-7-7-|-------------------------------------------|
D|-7-7-7-7-|---5-5-5-5-|-7-7-7-7-|-------------------------------------------|


(Lead) w/tremolo (X4)

          x5          x2        x3                                                     
e|---------|-----------|----------|------------------------------------------|
B|---------|-----------|----------|------------------------------------------|
G|-9h10p9--|----7h9p7--|--9h10p9--|------------------------------------------|
D|---------|-----------|----------|------------------------------------------|
A|---------|-----------|----------|------------------------------------------|
D|---------|-----------|----------|------------------------------------------|


INTERLUDE (Clean/Reverb):
                                                                            x4
e|---------------------------------------------------------------------------|
B|---------------------------------------------------------------------------|
G|---------------------------------------------------------------------------|
D|------2-------3-3p2--------------------------------------------------------|
A|-3-3----3-5-5--------------------------------------------------------------|
D|---------------------------------------------------------------------------|


CHORUS (Distortion) (X4)


VERSE 2 (clean/Reverb):          x3                             
e|--------------------------------|------------------------------------------|
B|--------------------------------|------------------------------------------|
G|--------------------------------|------------------------------------------|
D|--------------------------------|------------------------------------------|
A|---2----------7-7-------10------|---------2----------7-7-------10----------|
D|-2---5--5h6h7-----10-10----10\2-|-------2---5--5h6h7-----10-10-------------|


CHORUS (Distortion) (X4)


OUTRO (Clean/Reverb):                                                       x4
e|---------------------------------------------------------------------------|
B|---------------------------------------------------------------------------|
G|---------------------------------------------------------------------------|
D|-----2-------3-3p2---------------------------------------------------------|
A|-3-3---3-5-5---------------------------------------------------------------|
D|---------------------------------------------------------------------------|


| \  slide down
| h  hammer-on
| p  pull-off
===============================================================================


Lyrics:

I've been working on a piece that speaks of sex and desperation
I've been screwing on the tracks of abandoned train stations

One, two, three, four
ART STAR!  (X8)

I got a dealer in tokyo
I got a rep in paris
I got a agent in rome
sh*t i got a gallery in new york!
Its a mad house this modern life
Its a mad house my faithless bride

ART STAR! (x8)
            
Hard to play? Try these video lessons and learn fast. | Correct




comments powered by Disqus
↑ Back to top | Tablatures and chords are parodies/interpretations of the original songs. You may use it for private study, scholarship, research or language learning purposes only