» » »

Art Star Tabs (ver.1)

Artists:  A B C D E F G H I J K L M N O P Q R S T U V W X Y Z # 

Art Star Tabs (ver.1)

Yeah Yeah Yeahs
Rating:
5/5 (6 votes)

Hard to play? Try these video lessons and learn fast.
                

Standard Tuning

Enjoy

8x
E-------------------------------------------
B-------------------------------------------
G-------------------------------------------
D-----------2--2---------2------2-----------
A-----0--0--------3---3------3--------------
E-------------------------------------------
"i've been working on......"

distorted section.
figure out timing yourself 

E---------------------------------------------------------------------------
B---------------------------------------------------------------------------
G--9-9-9-9-10-10-10-10-9-9-9-9-10-10-10-10-9-9-9-9-10-10-9-9-9-9-10--10-10--
D--x-x-x-x--x--x--x--x-x-x-x-x--x--x--x--x-x-x-x-x--x--x-x-x-x-x--x--xx--x--
A--7-7-7-7--7--7--7--7-7-7-7-7--7--7--7--7-7-7-7-7--7--7-7-7-7-7--7--77--7--
E---------------------------------------------------------------------------

(this might be played overdubbed)
     A     G            
E----------------
B----------------   
G----------------   
D----7-----5-----   
A----7-----5-----   
E----5-----3-----   
"art star...."

4x
E-------------------------------------------
B-------------------------------------------
G-------------------------------------------
D----------2------0--0---3--3--2------------
A----3--3-----3-----------------------------
E-------------------------------------------
"do do do......"

4x
E----------------------------------------------------
B----------------------------------------------------
G----------------------------------------------------
D----------------------------------------------5-----
A---------2-----------------------7--7--3--3---------
E-----0-------3----------3--5--5---------------------
"i got a dealer..."
        you can slide here ^ if you want

4x
E-------------------------------------------
B-------------------------------------------
G-------------------------------------------
D-----------2-------0--0---3--3--2----------
A----3--3-------3---------------------------
E-------------------------------------------
"do do do...."
            
Hard to play? Try these video lessons and learn fast. | Correct




comments powered by Disqus
↑ Back to top | Tablatures and chords are parodies/interpretations of the original songs. You may use it for private study, scholarship, research or language learning purposes only