» » »

Yeah Yeah Yeahs, No No No Tabs (ver.2)

Artists:  A B C D E F G H I J K L M N O P Q R S T U V W X Y Z # 

No No No Tabs (ver.2)

Yeah Yeah Yeahs Tabs
 Rating:
4/5 (4 votes)
No No No lessons Tabs too difficult? Try these video lessons and learn fast
1
                Band: Yeah Yeah Yeahs

Standard tuning (EADGBE)

Intro (clean):

|-------------------------------|
|-------------------------------|
|777-777-777-777-999-999-999-999|
|-------------------------------|
|-------------------------------|
|-------------------------------| x4

Verse 1 (clean):

|----|
|----|
|7777|
|----|
|----|
|----|

|---------------------------------------------------------------|
|---------------------------------------------------------------|
|------------99-999-999-999-777-777-777-777-999-999-999-999-7777|
|---------------------------------------------------------------|
|---------------------------------------------------------------|
|---------------------------------------------------------------| x2

Chorus (disorted):

|----------------------------------------------------------------|
|----------------------------------------------------------------|
|----------------------------------------------------------------|
|------------7---2---7---12---99-999-999-999-77777777777777777999|
|------------7---2---7---12---99-999-999-999-77777777777777777999|
|------------5---0---5---10---77-777-777-777-55555555555555555777| x2

Solo (disorted):

|------------------|
|------------------|
|------------------|
|------------------|
|------------------|
|00-019--00-019-17-| x4

Bridge 1 (disorted):
|-------|
|-------|
|-------|
|2------|
|2------|
|0------| x4
    |
Fill in with harmonics.

Verse 2 (disorted, palm mute):

|--------------------------------|
|--------------------------------|
|--------------------------------|
|--------------------------------|
|----7777----77------5555----5555|
|5555----5555--557777----7777----| x3

|--------------------------------|
|--------------------------------|
|--------------------------------|
|--------------------------------|
|----7777----77------555555555555|
|5555----5555--557777------------|

|--------------------------------|
|--------------------------------|
|--------------------------------|
|--------------------------------|
|----7777----77------5555----5555|
|5555----5555--557777----7777----| x2

|----------------|
|----------------|
|----------------|
|----------------|
|----7777----77--|
|5555----5555--55|

Bridge 2 (disorted):

|----------------------------------------------------------------|
|----------------------------------------------------------------|
|----------------------------------------------------------------|
|----------------------------------------------------------------|
|------------------------------------------------55-55555--------|
|00-0000022-2222233-3333355-5555577-7777755-55555--------55-55555|

|------------------------------------------------------------------------|
|------------------------------------------------------------------------|
|------------------------------------------------------------------------|
|--------------------------------77777777------------------------77777777|
|77777777999999991010101010101010------------------------55555555--------|
|----------------------------------------7777777755555555----------------|


Repeat solo.

Pre-Chorus (disorted):

|---|
|---|
|---|
|999|
|999|
|777|

End on chorus
            
Submit corrections

comments powered by Disqus
↑ Back to top | Yeah Yeah Yeahs Tabs for No No No. Lyrics for acoustic guitar and electric guitar. 1 Tablatures and chords are parodies/interpretations of the original songs. You may use it for private study, scholarship, research or language learning purposes only