» » »

Yeah Yeah Yeahs, Mr. You're On Fire, Mr Tabs (ver.1)

Artists:  A B C D E F G H I J K L M N O P Q R S T U V W X Y Z # 

Mr. You're On Fire, Mr Tabs (ver.1)

Yeah Yeah Yeahs Tabs
Rating:
0/5 (0 votes)
Mr. You're On Fire, Mr lessons Tabs too difficult? Try these video lessons and learn fast
                			   Mr You're On Fire Mr   - Yeah Yeah Yeahs

Of course, a cover of the Liars tune - don't know that one very well, but from 1st 
don't sound too similar! Love what YYY's have done, with the electronica/industrial feel to 
song


Tuning: Standard

Riff 1 (0:01)

e|----------------------------------------------------------------------------|
B|----------------------------------------------------------------------------|
G|----------------------------------------------------------------------------|
D|----------------------------------------------------------------------------|
A|---------9-9-9---125 5------------------------------------------------------|
E|--7-7-7---------------------------------------------------------------------|

and throughout the song..


Riff 2 (0:24)

e|---------------------------------------10---------------------------------|
B|--12-12--10-12--10-12---12-12--10-12--------------------------------------|
G|--------------------------------------------------------------------------|
D|--------------------------------------------------------------------------|
A|--------------------------------------------------------------------------|
E|--------------------------------------------------------------------------|

e|---------------------------------------------10---------------------------|
B|--12-12--10-12--10-12---12-12---10-12--10-12------------------------------|
G|--------------------------------------------------------------------------|
D|--------------------------------------------------------------------------|
A|--------------------------------------------------------------------------|
E|--------------------------------------------------------------------------|

e|-------------------10----------------10-----------------------------------|
B|--12-12--10-12--10-----12-12--10-12---------------------------------------|
G|--------------------------------------------------------------------------|
D|--------------------------------------------------------------------------|
A|--------------------------------------------------------------------------|
E|--------------------------------------------------------------------------|

e|---------------------------------------------12---------------------------|
B|--12-12--10-12--10-12---12-12---10-12--10-12------------------------------|
G|--------------------------------------------------------------------------|
D|--------------------------------------------------------------------------|
A|--------------------------------------------------------------------------|
E|--------------------------------------------------------------------------|

etc - there are some slight variations but all within same scale

Riff 3 (1:31)

e|----------------------------------------------------------------------------|
B|----------------------------------------------------------------------------|
G|----------------------------------------------------------------------------|
D|----------------------------------------------------------------------------|
A|----------------------------------------------------------------------------|
E|--7~-----7~----5---3~---0---------------------------------------------------|

x3

then..

e|--------------------------------------------------------------------------|
B|--------------------------------------------------------------------------|
G|--------------------------------------------------------------------------|
D|--------------------------------------------------------------------------|
A|--------------------------------------------------------------------------|
E|--7~-----7~----5---3~---0---2~--------------------------------------------|


Then Riffs 1 & 2 are played together until end


| /  slide up
|   slide down
| h  hammer-on
| p  pull-off
| ~  vibrato
| +  harmonic
| x  Mute note
            

comments powered by Disqus
↑ Back to top | Yeah Yeah Yeahs Tabs for Mr. You're On Fire, Mr. Lyrics for acoustic guitar and electric guitar. Tablatures and chords are parodies/interpretations of the original songs. You may use it for private study, scholarship, research or language learning purposes only