» » »

Yeah Yeah Yeahs, Modern Things Tabs (ver.2)

Artists:  A B C D E F G H I J K L M N O P Q R S T U V W X Y Z # 

Modern Things Tabs (ver.2)

Yeah Yeah Yeahs Tabs
 Rating:
4.2/5 (5 votes)
Modern Things lessons Tabs too difficult? Try these video lessons and learn fast
1
                
Tuning: Standard



Hope you enjoy!



Verses/Main Riff

e|-------------------------------------------------------------------------|
B|-------------------------------------------------------------------------|
G|---------5-5-5-----------------------------------------------------------|
D|--7-7-7--5-5-5-------etc-------------------------------------------------|
A|--7-7-7--3-3-3-----------------------------------------------------------|
E|--5-5-5------------------------------------------------------------------|




Riff 1 (0:26)

e|--------------------------------------------------------------------------|
B|--------------------------------------------------------------------------|
G|--------------------------------------------------------------------------|
D|-----7----------------5-2-------------------------------------------------|
A|-------0--0-7-0---3-3-----------------------------------------------------|
E|--5----------------------------------------------------------------------| x4


Back to Verse Riff

Riff 2 (1:08)

Use tremolo picking-esque technique for these 

e|-------------------------------------------------------------------------|
B|-------------------------------------------------------------------------|
G|-------------------------------------------------------------------------|
D|-------------------------------------------------------------------------|
A|----------------------------------------10-10--10-10---------------------|
E|--5-5-5etc--8-8-8--10-10-10--15-15-15----8-8----8-8----------------------|



Chorus (1:25)

e|--------------------------------------------------------------------------|
B|--------------------------------------------------------------------------|
G|--------------------------------------------------------------------------|
D|--------------------------------------------------------------------------|
A|-----------------------5-2-5-2-5------------------------------------------|
E|--0--12-0--0-12-0--3-3---------------------------------------------------| x4


Back to Verses

Riff 2

Outro is same as Riff 1

end on A5 or Am




| /  slide up
| \  slide down
| h  hammer-on
| p  pull-off
| ~  vibrato
| +  harmonic
| x  Mute note
            
Submit corrections

comments powered by Disqus
↑ Back to top | Yeah Yeah Yeahs Tabs for Modern Things. Lyrics for acoustic guitar and electric guitar. 1 Tablatures and chords are parodies/interpretations of the original songs. You may use it for private study, scholarship, research or language learning purposes only