» » »

Yeah Yeah Yeahs, Modern Romance Tabs (ver.1)

Artists:  A B C D E F G H I J K L M N O P Q R S T U V W X Y Z # 

Modern Romance Tabs (ver.1)

Yeah Yeah Yeahs Tabs
 Rating:
4/5 (12 votes)
Modern Romance lessons Tabs too difficult? Try these video lessons and learn fast
                Yeah yeah yeahs
Fever to tell
Normal Tuning

Intro/Verse

|---------------------------------|
|---------------------------------|
|---------------------------------|
|---------------------------------|
|-7-7-7-7-7-7-7-7-7-7-7-7-7-7-7-7-|
|-5-5-5-5-5-5-0-4-5-5-5-5-5-5-4-0-| 

Bridge (and time, time is gone. it stops stops who it wants..)

|----|
|----|
|----|
|----|
|-12-|
|-10-| x33

(Here and there there are high notes that i think were recorded then 
 played backwards but u can just do volume swells with 12 on the high
 e string, 10 on the B string or 9 on the G string which gives the same effect)


--When Modern Romance ends there is another song right after it and
i dont know what its called but here it is...

Intro  (after "ummm tsh um ummm tsh")

|--(5)-----(5)-|
|--(5)-----(5)-| (There are optoinal as u can varely here them)
|--(5)-----(5)-| (If u do want to play them, palm mute them)
|-5----5-5-----|
|-5----5-5-----|
|-3----3-3-----| x6

Verse 

|--(2)-----(2)-|
|--(2)-----(2)-| (Same thing here, and everything else in brackets)
|--(2)-----(2)-|
|-2----2-2-----|
|-2----2-2-----|
|-0----0-0-----| x2

|--(5)-----(5)-|
|--(5)-----(5)-| 
|--(5)-----(5)-| 
|-5----5-5-----|
|-5----5-5-----|
|-3----3-3-----| x2

|--(2)-----(2)-|
|--(2)-----(2)-| 
|--(2)-----(2)-|
|-2----2-2-----|
|-2----2-2-----|
|-0----0-0-----| x2

|---(10)------(10)-|
|---(10)------(10)-|
|---(10)------(10)-|
|-10-----10-10-----|
|-10-----10-10-----|
|--8------8--8-----| x2

|--(7)----(7)-|
|--(7)----(7)-|
|--(7)----(7)-|
|-7----7-7----|
|-7----7-7----|
|-5----5-5----| x2

|-----------| |---|
|-----------| |---|
|-----------| |---|
|-/12~------| |-7-|
|-/12~------| |-7-|
|-/10~--7\0-| |-5-| x17 (x9 for the ending)  

Then play the verse again but start it with this...

|--(5)-----(5)-|
|--(5)-----(5)-| 
|--(5)-----(5)-| 
|-5----5-5-----|
|-5----5-5-----|
|-3----3-3-----| x2
            
Submit corrections

comments powered by Disqus
↑ Back to top | Yeah Yeah Yeahs Tabs for Modern Romance. Lyrics for acoustic guitar and electric guitar. Tablatures and chords are parodies/interpretations of the original songs. You may use it for private study, scholarship, research or language learning purposes only