» » »

Miles Away Tabs (ver.1)

Artists:  A B C D E F G H I J K L M N O P Q R S T U V W X Y Z # 

Miles Away Tabs (ver.1)

Yeah Yeah Yeahs
Rating:
0/5 (0 votes)

Hard to play? Try these video lessons and learn fast.
                First Verse:
palm mute..........................................|
|--------------------------------------------------|
|--------------------------------------------------|
|--------------------------------------------------|
|--------------------------------------------------|
|--------------------------------------------------|
|5-5-5-5-5-5-5-5-5-5-5-5-5-5-5-5-5-3-3-3-3-0-0-0-0-|


Prechorus:

|---------------------------------------------------------------------------------------------|
|---------------------------------------------------------------------------------------------|
|---------------------------------------------------------------------------------------------|
|---------------------------------------------------------------------------------------------|
|10-10-10-14-14-14-14-12-12-12-12-14-14-14-14-10-10-10-10-14-14-14-14-12-12-12-12-12-12-12-12-|
|-8-8-8-8-12-12-12-12-10-10-10-10-12-12-12-12--8-8-8-8--8-12-12-12-12-10-10-10-10-10-10-10-10-|


Chorus:


|-----------------------------------XXXXXXXX--|
|-----------------------------------XXXXXXXX--|
|-----------------------------------XXXXXXXX--|                  LAST CHORUS NO X's
|-----------------------------------XXXXXXXX--|
|5/14-5-5/14-3--7-7-7-7-7-7-7-7-----XXXXXXXX--|
|3/12-3-3/12-1--5-5-5-5-5-5-5-5-----XXXXXXXX--|


Second verse:
palm mute.........................................................................|
|-------------------------------------------------------------------------------------------------|
|-------------------------------------------------------------------------------------------------|
|-------------------------------------------------------------------------------------------------|
|----------------------------------------------------------------------------------7-0-7-0-7-0-7-0|
|----------------------------------------------------------------------------------7-0-7-0-7-0-7-0|
|5-5-5-5-5-5-5-5-5-5-5-5-5-5-5-5-5-3-3-3-3-3-3-3-3-0-0-0-0-0-0-0-0-5-5-5-5-5-5-5-5-5-5-5-5-5-5-5-5|

Outro:

|-------------------------|
|-------------------------|
|-----------6---5---------|
|-----------7---7---------|
|-----------7---7---------|
|-------------------------|


first verse X 2
prechorus X 1
chorus X 3
second verse X 1
prechorus X 1
chrous X 3
outro X ?
            
Hard to play? Try these video lessons and learn fast. | Correct




comments powered by Disqus
↑ Back to top | Tablatures and chords are parodies/interpretations of the original songs. You may use it for private study, scholarship, research or language learning purposes only