» » »

Maps Tabs (ver.8)

Artists:  A B C D E F G H I J K L M N O P Q R S T U V W X Y Z # 

Maps Tabs (ver.8)

Yeah Yeah Yeahs
Rating:
0/5 (0 votes)

Hard to play? Try these video lessons and learn fast.
                ------------------------------------------------------------------------------
------------------------------------------------------------------------------

Tuning:Standard

Intro   (tremolo picking)
e|-10-10-10-10-10-10-10-10-10-10-10-10-10-|
B|----------------------------------------|
G|----------------------------------------|
D|----------------------------------------|
A|----------------------------------------|
E|----------------------------------------|

Verse
e|---------------------------------------------|
B|-12-12-12-12/8-8-8-8/12-12-12-12-15-15-15-15-|
G|---------------------------------------------|
D|---------------------------------------------|
A|---------------------------------------------|
E|---------------------------------------------|

e|---------------------------------12-12-12----|
B|-12-12-12-12/8-8-8-8/17-17-17-17-------------|
G|---------------------------------------------|
D|---------------------------------------------|
A|---------------------------------------------|
E|---------------------------------------------|

chorus          (fast picking)
e|-19-19-19-19-19-19-17-17-15-15-15-15-15-12-14-15-(x4)-|
B|------------------------------------------------------|
G|------------------------------------------------------|
D|------------------------------------------------------|
A|------------------------------------------------------|
E|------------------------------------------------------|

Bridge
e|-19-19-19-17-15-15-15-15-12-12-12-10-15-15-15-15-|
B|-------------------------------------------------|
G|-------------------------------------------------|
D|-------------------------------------------------|
A|-------------------------------------------------|
E|-------------------------------------------------|

Solo
e|--------------------------------------------------------------------------|
B|--------------------------------------------------------------------------|
G|--------------------------------------------------------------------------|
D|-2/5-5-5-4-5-4-------------2/5-5-5-4-9-9-------------2/5-5-5-4-5-4--------|
A|--------------------------------------------------------------------------|
E|---------------3-3-3-3-5-5---------------3-3-3-3-5-5----------------------|

e|--------------------------------------------------------------------------|
B|--------------------------------------------------------------------------|
G|--------------------------------------------------------------------------|
D|-------------2/5-5-5-4-9-9-7-5------5--2----------5----5--2----------5----|
A|------------------------------------------5-----5----5-------5-----5----5-|
E|-3-3-3-3-5-5-------------------3333----------3------------------3---------|

Outro (let the last chord ring)
e|-------------------------------------------------------------------|
B|-------------------------------------------------------------------|
G|-------------------------------------------------------------------|
D|-2/5-5-5-4-5-4-------------2/5-5-5-4-9-9-------------2/5-5-5-4-5-4-|
A|-------------------------------------------------------------------|
E|---------------3-3-3-3-5-5---------------3-3-3-3-5-5---------------|

e|-------------------------------------------------------------------|
B|-------------------------------------------------------------------|
G|-------------------------------------------------------------------|
D|-------------2/5-5-5-4-9-9-7-5-5-----------------------------------|
A|-------------------------------5-----------------------------------|
E|-3-3-3-3-5-5-------------------3-----------------------------------|

Let's see, seeing as this is my first tab, I should do the whole "don't bash me
thing...I don't care, blast me, gimme some feedback, I just wanted to tab out the
song correctly 'cause I saw a lot of missing notes in the other tabs. Just listen
to the song and you'll get it.

Intro
Verse
Chorus
Bridge
Verse
Chorus x2
Solo
Chorus x2
Outro


| /  slide up
| \  slide down
| h  hammer-on
| p  pull-off
| ~  vibrato
| +  harmonic
| x  Mute note
==============================================================================
            
Hard to play? Try these video lessons and learn fast. | Correct




comments powered by Disqus
↑ Back to top | Tablatures and chords are parodies/interpretations of the original songs. You may use it for private study, scholarship, research or language learning purposes only