» » »

Heads Will Roll Bass tabs (ver.1)

Artists:  A B C D E F G H I J K L M N O P Q R S T U V W X Y Z # 

Heads Will Roll Bass tabs (ver.1)

Yeah Yeah Yeahs
Rating:
5/5 (1 vote)

Hard to play? Try these video lessons and learn fast.
                Bass Line For Verse.


G|--------------------||
D|--------------------|| x2
A|---------11----9----||
E|-12--11-------------||



G|--------------------||
D|--------------------|| x2
A|---------11----9----||
E|-9--11--------------||

This continues through the first verse



"Glitter on the wet streets"

G|----------------------------------------------||
D|----------------------------------------------||
A|----------------------------------------------|| x2
E|-12-12-12-12--11-11-11-11--4-4-4-4-4-4-4-4----||


G|-------------------------------------------------||
D|-------------------------------------------------||
A|-4-4-4-4--6-6-6-6--11-11-11-11-11-11-9--9--------|| 
E|-------------------------------------------------||

G|-------------------------------------------------||
D|-------------------------------------------------||
A|-7-7-7-7--9--9--9--9---11-11-11-11-11-11-11-11---|| 
E|-------------------------------------------------||


"You're all chrome"

G|-------------------------------------------------||
D|-------------------------------------------------||
A|-7-7-7-7--9--9--9--9---11-11-11-11-11-11-11-11---|| 
E|-------------------------------------------------||

Bridge 2 - 

"Can You Last..."

G|-----------------------------------||
D|-----------------------------------||  X 4
A|-11--9----------------11-----------||
E|--------11----9---11---------------||
            
Hard to play? Try these video lessons and learn fast. | Correct




comments powered by Disqus
↑ Back to top | Tablatures and chords are parodies/interpretations of the original songs. You may use it for private study, scholarship, research or language learning purposes only