» » »

Yeah Yeah Yeahs, Fancy Tabs (ver.1)

Artists:  A B C D E F G H I J K L M N O P Q R S T U V W X Y Z # 

Fancy Tabs (ver.1)

Yeah Yeah Yeahs Tabs
 Rating:
4/5 (5 votes)
Fancy lessons Tabs too difficult? Try these video lessons and learn fast
                

*There's a little voice in my head saying that this tune is in Eb but what the heck, i 
it in standard! *

PLZ GIVE ME A RATING IF YOU LIKE! Enjoy...


VERSE


Main Riff (0:14)

e|--------------------------------------------------------------------------|
B|--------------------------------------------------------------------------|
G|--------------------------------------------------------------------------|
D|--------------------------------------------------------------------------|
A|--13-13-13--1111111111----------------------------------------------------|
E|--11-11-11--9-9-9-9-9-----------------------------------------------------|
X3, then

e|--------------------------------------------------------------------------|
B|--------------------------------------------------------------------------|
G|--------------------------------------------------------------------------|
D|--11--13-13-13--6-6-6-6---------------------------------------------------|
A|--9---11-11-11--4-4-4-4---------------------------------------------------|
E|--------------------------------------------------------------------------|

Fill 1 (0:59)

e|--------------------------------------------------------------------------|
B|--------------------------------------------------------------------------|
G|--------------------------------------------------------------------------|
D|--------------------------------------------------------------------------|
A|--------------------------------------------------------------------------|
E|--11-11-11-11-11-11-11-11-11-11-------------------------------------------|
palm-mute these notes, feel free to add some harmonics

Fill 2 (1:43)

e|----------------------------------------------------------------------------|
B|--------------------------------------------------------------------/16/18--|
G|-----------15-14-------------15-14---------------15-14--------------/16/18--|
D|--13-15-16-------16-15-16-15--------16-15-16--15-------16-15-16--15---------|
A|----------------------------------------------------------------------------|
E|----------------------------------------------------------------------------|

| /  slide up
|   slide down
| h  hammer-on
| p  pull-off
| ~  vibrato
| +  harmonic
| x  Mute note
            
Submit corrections

comments powered by Disqus
↑ Back to top | Yeah Yeah Yeahs Tabs for Fancy. Lyrics for acoustic guitar and electric guitar. Tablatures and chords are parodies/interpretations of the original songs. You may use it for private study, scholarship, research or language learning purposes only