>
 >
Dull Life

Dull Life Guitar Tabs

Yeah Yeah Yeahs - Dull Life chords, tabs, tablatures, lyrics

Guitar lessons | Add/correct | Request | Top 50 tabs Artists:  A B C D E F G H I J K L M N O P Q R S T U V W X Y Z 0-9

Dull Life Guitar Tabs – Yeah Yeah Yeahs

CD, Sheet music, Poster

Do you like Dull Life? Share with your friends now
Bass TabsChordsTabsUkulele

Feel free to email corrections, after all this is my first tab.

Tuning:Standard

Intro
e|---7---7---7---7-|
B|-----------------|
G|-----------------| x4
D|-----------------|
A|-----------------|
E|-7---7---7---7---|
                                                                    +
e|---7---7---7---7---7---7---7---7---7---7---7---7---7---7---7---7--7-|
B|------------------------------------------------------------------7-|
G|------------------------------------------------------------------7-| x2
D|------------------------------------------------------------------7-|
A|-------------------------------------------------5---5---5---5----7-|
E|-7---7---7---7---5---5---5---5---0---0---0---0--------------------7-|

Verse - This parts tricky to tab the rhythm into (tried my best) but it's easy to
pick up if you listen to the song
e|---------------------------------------------------------------------|
B|----15-----12-----10----7----5------------------------------------15-|
G|-16-----14-----11-----9----7---4---4-7---7-9---9-11-11---11-14-16----| x2
D|---------------------------------------------------------------------|
A|---------------------------------------------------------------------|
E|---------------------------------------------------------------------|

This part once again was tricky to tab the rhythm into (there are also a couple 
alternate ways to play this but this seems to be the easiest) once again just 
listen to the song you should naturally play the chords correctly. Also note the
third chord of each bar is more of a quick transition to the fourth.
e|---------------------------------------------------------------------------|
B|---------------------------------------------------------------------------|
G|---------------------------6--6-7----9-9-7-----------------------------7---|x2
D|-9-11-11-12--7-11-11-12--5-6--6-7--4-9-9-7--5-7-7-9--7-9-9-10--9-9-9-9-7-9-|
A|-9-11-11-12--7-11-11-12--5-4--4-5--4-7-7-5--5-7-7-9--7-9-9-10--9-9-9-9-5-9-|
E|-7-9--9--10--5-9--9--10--3---------2--------3-5-5-7--5-7-7-9---7-7-7-7---7-|

This next section is a little annoying, there are some chords played but I'm lost
as to what they are exactly (there are also harmonics on the seventh from what I 
can hear but I may be nuts), for now have fun with the little bass line thats played
on top, once again listen to the song for the rhythm xD
e|------------|
B|------------|
G|------------| x24 (seriously though so much more happens in this section)
D|------------|
A|------5-5---|
E|-5--7-----7-|

Once again the verse
e|---------------------------------------------------------------------|
B|----15-----12-----10----7----5------------------------------------15-|
G|-16-----14-----11-----9----7---4---4-7---7-9---9-11-11---11-14-16----| x2
D|---------------------------------------------------------------------|
A|---------------------------------------------------------------------|
E|---------------------------------------------------------------------|

After you repeat the verse twice play this, each chord is played for 1 bar, tremolo picking 
(I'm not writing them in individually but you get the picture) This may even be played behind
the verse...
e|----------------|
B|-12--15--17--19-| x2
G|-11--14--16--18-|
D|----------------|
A|----------------|
E|----------------|

Once again these chords are played
e|---------------------------------------------------------------------------|
B|---------------------------------------------------------------------------|
G|---------------------------6--6-7----9-9-7-----------------------------7---|x2
D|-9-11-11-12--7-11-11-12--5-6--6-7--4-9-9-7--5-7-7-9--7-9-9-10--9-9-9-9-7-9-|
A|-9-11-11-12--7-11-11-12--5-4--4-5--4-7-7-5--5-7-7-9--7-9-9-10--9-9-9-9-5-9-|
E|-7-9--9--10--5-9--9--10--3---------2--------3-5-5-7--5-7-7-9---7-7-7-7---7-|

Bridge - Alright heres my biggest failing I know roughly where the notes are I just 
can't seem to ever get this right though, but heres what it is roughly (if you have 
throwing me off) Other than that its played with a hell of alot of reverb and delay
e|---------------------------------------------------------------------------|
B|---------15--15---------------15--15---------------15--15---------------17-|
G|--16-16---------16-16\\14-14---------14-14\\12-12---------12-12//18-18-----|
D|---------------------------------------------------------------------------|
A|---------------------------------------------------------------------------|
E|---------------------------------------------------------------------------|

e|----------|
B|-17----17-|
G|----18----|
D|----------|
A|----------|
E|----------|

After the annoying bridge back to the verse twice then end it with the chords
e|---------------------------------------------------------------------|
B|----15-----12-----10----7----5------------------------------------15-|
G|-16-----14-----11-----9----7---4---4-7---7-9---9-11-11---11-14-16----| x2
D|---------------------------------------------------------------------|
A|---------------------------------------------------------------------|
E|---------------------------------------------------------------------|

e|---------------------------------------------------------------------------|
B|---------------------------------------------------------------------------|
G|---------------------------6--6-7----9-9-7-----------------------------7---|x1
D|-9-11-11-12--7-11-11-12--5-6--6-7--4-9-9-7--5-7-7-9--7-9-9-10--9-9-9-9-7-9-|
A|-9-11-11-12--7-11-11-12--5-4--4-5--4-7-7-5--5-7-7-9--7-9-9-10--9-9-9-9-5-9-|
E|-7-9--9--10--5-9--9--10--3---------2--------3-5-5-7--5-7-7-9---7-7-7-7---7-|

Any questions, comments and corrections are much appreciated, once again my email is
Rfarrell369(at)msn(dot)com

| /  slide up
| \  slide down
| h  hammer-on
| p  pull-off
| ~  vibrato
| +  harmonic
| x  Mute note





Comments


Popular Yeah Yeah Yeahs tabs & chords
Gold Lion Bass Tabs
Runaway 2 Chords
Zero Chords
Deja Vu Tabs
Little Shadow Tabs
Pins Tabs
Poor Song Tabs
Way Out Intro Tabs
Y Control Tabs
Warrior Ukulele


Song lyrics



↑ Back to top | Tablatures and chords are parodies/interpretations of the original songs. You may use it for private study, scholarship, research or language learning purposes only
© 2014 AZChords.com Contact us | Privacy policy | DMCA | Add/correct tabs | Request tabs | Top 50 tabs