» » »

Yeah Yeah Yeahs, Down Boy Tabs (ver.1)

Artists:  A B C D E F G H I J K L M N O P Q R S T U V W X Y Z # 

Down Boy Tabs (ver.1)

Yeah Yeah Yeahs Tabs
Rating:
4/5 (6 votes)
Down Boy lessons Tabs too difficult? Try these video lessons and learn fast
                i don't know if this is one hundred percent right. i just listened to it on the rockers
swallow dvd and guess-and-checked. sounds just about right though. please correct me if
wrong. lyrics from rockerstoswallow.tk  with some changes due to what's sung on the dvd.
never heard a studio recording. please send me a file of it if you have one. that'd be
if anyone knows the name of the style/effect of piano nick uses on his keyboard
the verses please share it with me. even more dandy.
there's a way to strum through all of the first part of the chorus. just mute unwanted
with the index finger and the thumb when needed. your index should automatically mute the
e string. finger the chords with middle, ring, and pinky. experiment.
first tab. enjoy.

Yeah Yeah Yeahs
in standard tuning


No fame
All there is
All there was
On the second lady
Can't take a cent
Take a cut of that
Kind of ran
I'll stand kind of pushed
Kind of bent
On that heavy land
I'll stand for the sake of my friend
I will see him there


CHORUS PART I
E|-----------------------------------------------------------|
B|------8--8-8--8-----8--8-8--8-----8--8-8--8------8--8-8--8-|
G|------9--9-9--9-----8--9-9--9-----9--9-9--9------9--9-9--9-|
D|------9--9-9--9-----9--9-9--9-----9--9-9--9------9--9-9--9-|
A|------------------------------0--------------0-------------|
E|--0-------------0-------------*--------------*-------------|
    DOWN!

E|-----------------------------------------------------------|
B|------8--8-8--8-----8--8-8--8-----8--8-8--8------8--8-8--8-|
G|------9--9-9--9-----8--9-9--9-----9--9-9--9------9--9-9--9-|
D|------9--9-9--9-----9--9-9--9-----9--9-9--9------9--9-9--9-|
A|-----------------------------------------------------------|
E|--7-------------7-------------0--------------0-------------|


E|-----------------------------------------------------------|
B|------8--8-8--8-----8--8-8--8-----8--8-8--8------8--8-8--8-|
G|------9--9-9--9-----8--9-9--9-----9--9-9--9------9--9-9--9-|
D|------9--9-9--9-----9--9-9--9-----9--9-9--9------9--9-9--9-|
A|------------------------------0--------------0-------------|
E|--0-------------0-------------*--------------*-------------|
    down                        down           count  me

E|-----------------------------------------------------------|
B|------8--8-8--8-----8--8-8--8-----8--8-8--8------8--8-8--8-|
G|------9--9-9--9-----8--9-9--9-----9--9-9--9------9--9-9--9-|
D|------9--9-9--9-----9--9-9--9-----9--9-9--9------9--9-9--9-|
A|-----------------------------------------------------------|
E|--7-------------7-------------0--------------0-------------|
    down                        down           down   boy

E|-----------------------------------------------------------|
B|------8--8-8--8-----8--8-8--8-----8--8-8--8------8--8-8--8-|
G|------9--9-9--9-----8--9-9--9-----9--9-9--9------9--9-9--9-|
D|------9--9-9--9-----9--9-9--9-----9--9-9--9------9--9-9--9-|
A|--0-------------0------------------------------------------|
E|------------------------------7-------------7--------------|
    down          count  me     down          down    boy

E|-----------------------------------------------------------|
B|------8--8-8--8-----8--8-8--8-----8--8-8--8------8--8-8--8-|
G|------9--9-9--9-----8--9-9--9-----9--9-9--9------9--9-9--9-|
D|------9--9-9--9-----9--9-9--9-----9--9-9--9------9--9-9--9-|
A|-----------------------------------------------------------|
E|--8-------------8-------------10------------10-------------|
                  down   boy                  down    boy

E|-------------------------------|
B|------8--8-8--8--------8-8--8--|
G|------9--9-9--9--------9-9--9--|
D|------9--9-9--9--------9-9--9--|
A|-------------------------------|
E|--0-------------0---0----------|
    DOWN!


CHORUS PART II
E|-------------------------------|
B|-------------------------------|
G|-------------------------------|
D|-------------------------------| times two
A|-------------------------------|
E|--10-10--10/15-15\10-----------|

E|--------------w--s--p--t--m--h--t--d--t--e----|
B|--------------e--t--l--e--e--o--o--o--h--f----|
G|--------------i--u--e--l-----w--------e--f----|
D|--------------r--f--a--l--------------s--e----|
A|--------------d--f--s-----------------e--t----|
E|--some 0's----------e--------------------s----|

(do part two again)

The same
Not begin
Not give up
In a better way
Again
wash the stain
Off his bed
Not to split them off
I'll stand for the sake of my friend
I will see him there
Well I will see him there

CHORUS PART I & II
(pretty much the same as the last with some minor variations. i'm sure you could figure
out by yourself.)

the end
            
Submit corrections

comments powered by Disqus
↑ Back to top | Yeah Yeah Yeahs Tabs for Down Boy. Lyrics for acoustic guitar and electric guitar. Tablatures and chords are parodies/interpretations of the original songs. You may use it for private study, scholarship, research or language learning purposes only