>
 >
Deja Vu

Deja Vu Guitar Tabs

Yeah Yeah Yeahs - Deja Vu chords, tabs, tablatures, lyrics

Guitar lessons | Add/correct | Request | Top 50 tabs Artists:  A B C D E F G H I J K L M N O P Q R S T U V W X Y Z 0-9

Deja Vu Guitar Tabs – Yeah Yeah Yeahs

CD, Sheet music, Poster

Do you like Deja Vu? Share with your friends now
Tabs


This is a good tune from the YYY's album, which I liken to Smashing Pumpkins' Mellon 
- so much expectation (to follow a killer album), you kinda hate it the first few times you 
to it but after about 20-30 listens you appreciate it is a great record.

If the rhythm guitar gets stuck, just play the Bridge riffs over esp the Fills at the 
Hope you enjoy it.


Tuning: Standard


Intro (0:03)

e|-------------------------------------------------------------------------|
B|-------------------------------------------------------------------------|
G|-------------------------------------------------------------------------|
D|-------------------------------------------------------------------------|
A|-------+12--------------------+12----------------------------------------|
E|-0-0-0-----0-0-0-+12----0-0-0-----0-0-0-+12------------------------------| x2


Verses

e|----------------------------------------------------------------------------|
B|----------------------------------------------------------------------------|
G|----------------------------------------------------------------------------|
D|----------------------------------------------------------------------------|
A|-------12-------------------12----------------------------------------------|
E|-0-0-0-----0-0-0-12----0-0-0-----0-0-0-12-----------------------------------|


e|----------------------------------------------------------------------------|
B|----------------------------------------------------------------------------|
G|----------------------------------------------------------------------------|
D|-7-7-7-7-7-7--9-9-9-9-9-----------------------------------------------------|
A|-7-7-7-7-7-7--9-9-9-9-9-----------------------------------------------------|
E|-5-5-5-5-5-5--7-7-7-7-7-----------------------------------------------------| x2


Bridge (1:17) {also used for part of outro)

e|----------------------------------------------------------------------------|
B|----------------------------------------------------------------------------|
G|----------------------------------------------------------------------------|
D|----------------------------------------------------------------------------|
A|----------------------------------------------------------------------------|
E|-12--12-13-12--12--12--12-12/13-12------------------------------------------|

e|----------------------------------------------------------------------------|
B|----------------------------------------------------------------------------|
G|----------------------------------------------------------------------------|
D|-7-7-7-7-7-7--9-9-9-9-9-----------------------------------------------------|
A|-7-7-7-7-7-7--9-9-9-9-9-----------------------------------------------------|
E|-5-5-5-5-5-5--7-7-7-7-7-----------------------------------------------------|

e|----------------------------------------------------------------------------|
B|----------------------------------------------------------------------------|
G|----------------------------------------------------------------------------|
D|----------------------------------------------------------------------------|
A|-10-10--11-10-11---10-10--11-10-11------------------------------------------|
E|-12-12--13-12-13---12-12--13-12-13------------------------------------------|




Fill 1 (1:28)

e|--------------------------------10---------------------------------------|
B|----12-10~------------12-10----------------------------------------------|
G|--9--------11~-9----9--------11------------------------------------------|
D|-------------------------------------------------------------------------|
A|-------------------------------------------------------------------------|
E|-------------------------------------------------------------------------|

repeat this a few times, then...


Fill 2 (2:09)

e|-------------------------------------------------------------------------|
B|----------------------10-12-10--8-10-8-----------------------------------|
G|--9~--12-9~---9-12-9-----------------------------------------------------|
D|-------------------------------------------------------------------------|
A|-------------------------------------------------------------------------|
E|-------------------------------------------------------------------------| x2

e|-------------------------------------------------------------------------|
B|--10-12-10~---10-12-10--12-15-12~----------------------------------------|
G|-------------------------------------------------------------------------|
D|-------------------------------------------------------------------------|
A|-------------------------------------------------------------------------|
E|-------------------------------------------------------------------------|

Outro Riff (w/Fill 2)

e|-------------------------------------------------------------------------|
B|-------------------------------------------------------------------------|
G|-------------------------------------------------------------------------|
D|-------------------------------------------------------------------------|
A|-------------------------------------------------------------------------|
E|--/12-12-12~---5-7-5~---3-5-3~-------------------------------------------|


Then back to Bridge riffs

Then back to Intro

Phew! That's it.


| /  slide up
|   slide down
| h  hammer-on
| p  pull-off
| ~  vibrato
| +  harmonic
| x  Mute note





Comments


Popular Yeah Yeah Yeahs tabs & chords
Our Time Chords
Sweets Chords
Turn Into Chords
Way Out Chords
Gold Lion Tabs
Hysteric Tabs
Maps Tabs
Mysteries Tabs
Pin Tabs
Soft Shock 2 Ukulele


Song lyrics



↑ Back to top | Tablatures and chords are parodies/interpretations of the original songs. You may use it for private study, scholarship, research or language learning purposes only
© 2014 AZChords.com Contact us | Privacy policy | DMCA | Add/correct tabs | Request tabs | Top 50 tabs