» » »

Cheated Hearts Tabs (ver.3)

Artists:  A B C D E F G H I J K L M N O P Q R S T U V W X Y Z # 

Cheated Hearts Tabs (ver.3)

Yeah Yeah Yeahs
Rating:
0/5 (0 votes)

Tabs too difficult? Try these video lessons and learn fast.
                

Intro: 4x
E|-------------------|
B|-------------------|
G|-------------------|
D|-------------------|
A|-0-0-0-0-0-0-12-12-|
E|-------------------|

Cheated by the opposite of love
Held on high from up up up above
Kept my high from the second one
Kept my eye on the first one Now
E|-------------------|
B|-------------------|
G|-------------------|
D|-------------------|
A|-0-0-0-0-0-0-12-12-|
E|-------------------|    Verse 8x (twice for each line)



Take these rings and stow them safe away
E|-----0------0------0-0--0-|
B|-----2------2------2--2-2-|
G|-----2------2------2----2-|
D|-2-2-2--2-2-2--2-2-2----2-|
A|-0-0----0-0----0-0--------|
E|--------------------------|

I'll wear them on another rainy day
E|-----0------0------0-0------|
B|-----2------2------2--2-----|
G|-----2------2------2--------|
D|-----2------2------2--------|
A|-0-0----0-0----0-0------0-0-|
E|-2-2----2-2----2-2------2-2-|

Take these rings and stow them safe away
E|-----0------0------0-0--0--|
B|-----2------2------2--2-2--|
G|-----2------2------2----2--|
D|-----2------2------2----2--|
A|-0-0----0-0----0-0---------|
E|-0-0----0-0----0-0---------|

I'll wear them on another rainy day
E|-----0------0------0-0---0-|
B|-----2------2------2--2--2-|
G|-----2------2------2-----2-|
D|-----2------2------2-----2-|
A|-0-0----0-0----0-0-------0-|
E|-2-2----2-2----2-2---------|



E|---0-0--0-0--0-----0-0--0-0--0-------|
B|---2-2--2-2--2-----2-2--2-2--2-------|
G|---2-2--2-2--2-----2-2--2-2--2-------|
D|-2-2-2--2-2--2---0-0-0--0-0--0-------|
A|-0-0-0--0-0--0---2-2-2--2-2--2-------|
E|---0-0--0-0--0-----0-0--0-0--0-------|      see video for strumming

E|---0-0--0-0--0---0~
B|---2-2--2-2--2---2~
G|---2-2--2-2--2---2~
D|-2-2-2--2-2--2---0~
A|-0-0-0--0-0--0---2~
E|---0-0--0-0--0---0~


Well I'm
Taka-taka-taka-taka-takin' it off
E|-----0-----0-----0------0--|
B|-----2-----2-----2------2--|
G|-----2-----2-----2------2--|
D|-2-2-2-2-2-2-2-2-2-2--2-2--|
A|-0-0-0-0-0-0-0-0-0-0--0-0--|
E|-----0-----0-----0------0--|

And she's
Taka-taka-taka-taka-takin' it off
E|-----0-----0-----0------0--|
B|-----2-----2-----2------2--|
G|-----2-----2-----2------2--|
D|-0-0-0-0-0-0-0-0-0-0--0-0--|
A|-2-2-2-2-2-2-2-2-2-2--2-2--|
E|-----0-----0-----0------0--|

And he's
Taka-taka-taka-taka-takin' it off
E|-----0-----0-----0------0--|
B|-----2-----2-----2------2--|
G|-----2-----2-----2------2--|
D|-0-0-0-0-0-0-0-0-0-0--0-0--|
A|-4-4-4-4-4-4-4-4-4-4--4-4--|
E|-----0-----0-----0------0--|

And we're
Taka-taka-taka-taka-takin' it off
E|-----2-----2-----0-----2-|
B|-----3-----3-----3-----3-|
G|-2-2-2-2 2-2-2-2-2-2-2-2-|
D|-0-0-0-0-0-0-0-0-0-0-0-0-|
A|-----0-----0-0-0-0-0---0-|
E|-------------------------|



Sometimes I think that I'm bigger than the sound
E|-----0-----0-----0------0--|
B|-----2-----2-----2------2--|
G|-----2-----2-----2------2--|
D|-2-2-2-2-2-2-2-2-2-2--2-2--|
A|-0-0-0-0-0-0-0-0-0-0--0-0--|
E|-----0-----0-----0------0--|

I think that I'm bigger than the sound
E|-----0-----0-----0------0--|
B|-----2-----2-----2------2--|
G|-----2-----2-----2------2--|
D|-0-0-0-0-0-0-0-0-0-0--0-0--|
A|-2-2-2-2-2-2-2-2-2-2--2-2--|
E|-----0-----0-----0------0--|

I think that I'm bigger than the sound
E|-----0-----0-----0------0--|
B|-----2-----2-----2------2--|
G|-----2-----2-----2------2--|
D|-0-0-0-0-0-0-0-0-0-0--0-0--|
A|-4-4-4-4-4-4-4-4-4-4--4-4--|
E|-----0-----0-----0------0--|

I think that I'm bigger than the sound
E|-----2-----2-----0-----2-|
B|-----3-----3-----3-----3-|
G|-2-2-2-2 2-2-2-2-2-2-2-2-|
D|-0-0-0-0-0-0-0-0-0-0-0-0-|
A|-----0-----0-0-0-0-0---0-|
E|-------------------------|



E|-----5-5----5-5-----12-12---^3-|
B|-----5-5----5-5-----12-12------|
G|-------------------------------|
D|-------------------------------|
A|-0-0-----00--------------------|
E|-----------------0-0-----------|

E|-----5-5----5-5-----12-12---x-x---|  (mute on 3rd fret)
B|-----5-5----5-5-----12-12---x-x---|
G|----------------------------------|
D|----------------------------------|
A|-0-0-----00-----------------------|
E|-----------------0-0--------------|  x2



E|-------------------------------------|
B|--14-----14----------14------14------|
G|------14----14----------14-----14----|
D|-------------------------------------|
A|-12-12----------12-12--12--12-----12-|
E|-------------------------------------|

E|---------------------------------------|
B|----14-----14----------14------14------|
G|--------14----14----------14-----14----|
D|---------------------------------------|
A|12-12-12----------12-12--12--12-----12-|
E|---------------------------------------|

 She takes on high..
E|--------------------------------------|
B|---14------14---------14-------14-----|
G|-------14-----14-----------14-----14--|
D|--------------------------------------|
A|-12--12--12-------14-14--14--14-------|
E|--------------------------------------|

E|-----------------------------------------|
B|------14------14---------14-------14-----|
G|----------14-----14-----------14-----14--|
D|-----------------------------------------|
A|-12-12--12--12-------14-14--14--14-------|
E|-----------------------------------------|

She takes on high..
E|--------------------------------------|
B|---14------14---------14-------14-----|
G|-------14-----14-----------14-----14--|
D|--------------------------------------|
A|-12--12--12-------14-14--14--14-------|
E|--------------------------------------|

E|--------------------------------------|
B|------14------14---------14------14---|
G|----------14-----14---------14-----14-|
D|--------------------------------------|
A|--------------------------------------|
E|-14-14--14--14------12-12--12--12-----|



Sometimes I think that I'm bigger than the sound
I think that I'm bigger than the sound
E|----------------------------------------|
B|--14-----14---14-------14-----14-----14-|
G|----14----14------------14------14------|
D|----------------------------------------|
A|12-----12---12------14----14------14----|
E|----------------------------------------|

E|---------------------------------------|
B|---14-----14-----14----14----14-----14-|
G|-----14-----14-----------14----14------|
D|---------------------------------------|
A|---------------------------------------|
E|-14-----14-----14----12-----12----12---|this part may not be entirely correct

I think that I'm bigger than the sound
Well I think that I'm bigger than the sound
E|----------------------------------------|
B|--14-----14---14-------14-----14-----14-|
G|----14----14------------14------14------|
D|----------------------------------------|
A|12-----12---12------14----14------14----|
E|----------------------------------------|

E|---------------------------------------|
B|---14-----14-----14----14----14-----14-|
G|-----14-----14-----------14----14------|
D|---------------------------------------|
A|---------------------------------------|
E|-14-----14-----14----12-----12----12---|



Cheated by the opposite of love
Held on high from up up up above
Kept my high from the second one
Kept my eye on the first one Now
E|-------------------|
B|-------------------|
G|-------------------|
D|-------------------|
A|-0-0-0-0-0-0-12-12-|
E|-------------------|    8x (twice for each line)



Take these rings and stow them safe away
E|-----0------0------0-0--0-|
B|-----2------2------2--2-2-|
G|-----2------2------2----2-|
D|-2-2-2--2-2-2--2-2-2----2-|
A|-0-0----0-0----0-0--------|
E|--------------------------|

I'll wear them on another rainy day
E|-----0------0------0-0------|
B|-----2------2------2--2-----|
G|-----2------2------2--------|
D|-----2------2------2--------|
A|-0-0----0-0----0-0------0-0-|
E|-2-2----2-2----2-2------2-2-|

Take these rings and stow them safe away
E|-----0------0------0-0--0--|
B|-----2------2------2--2-2--|
G|-----2------2------2----2--|
D|-----2------2------2----2--|
A|-0-0----0-0----0-0---------|
E|-0-0----0-0----0-0---------|

I'll wear them on another rainy day
E|-----0------0------0-0---0-|
B|-----2------2------2--2--2-|
G|-----2------2------2-----2-|
D|-----2------2------2-----2-|
A|-0-0----0-0----0-0-------0-|
E|-2-2----2-2----2-2---------|


Take these rings and stow them safe away
E|-----0------0------0-0--0-|
B|-----2------2------2--2-2-|
G|-----2------2------2----2-|
D|-2-2-2--2-2-2--2-2-2----2-|
A|-0-0----0-0----0-0--------|
E|--------------------------|

I'll wear them on another rainy day
E|-----0------0------0-0------|
B|-----2------2------2--2-----|
G|-----2------2------2--------|
D|-----2------2------2--------|
A|-0-0----0-0----0-0------0-0-|
E|-2-2----2-2----2-2------2-2-|

Take these rings and stow them safe away
E|-----0------0------0-0--0--|
B|-----2------2------2--2-2--|
G|-----2------2------2----2--|
D|-----2------2------2----2--|
A|-0-0----0-0----0-0---------|
E|-0-0----0-0----0-0---------|

I'll wear them on another rainy day
E|-----0------0------0-0---0-|
B|-----2------2------2--2--2-|
G|-----2------2------2-----2-|
D|-----2------2------2-----2-|
A|-0-0----0-0----0-0-------0-|
E|-2-2----2-2----2-2---------|


E|-----5-5----5-5-----12-12---^3-|
B|-----5-5----5-5-----12-12------|
G|-------------------------------|
D|-------------------------------|
A|-0-0-----00--------------------|
E|-----------------0-0-----------|

E|-----5-5----5-5-----12-12---x-x---|  (mute on 3rd fret)
B|-----5-5----5-5-----12-12---x-x---|
G|----------------------------------|
D|----------------------------------|
A|-0-0-----00-----------------------|
E|-----------------0-0--------------|  x2



that's all folks. Great song. It's simple, but takes some times to get used to. Please 
comment for any corrections.
            
Tabs too difficult? Try these video lessons and learn fast.


comments powered by Disqus
↑ Back to top | Tablatures and chords are parodies/interpretations of the original songs. You may use it for private study, scholarship, research or language learning purposes only