>
 >
Cheated Hearts

Cheated Hearts Guitar Tabs

Yeah Yeah Yeahs - Cheated Hearts chords, tabs, tablatures, lyrics

Guitar lessons | Add/correct | Request | Top 50 tabs Artists:  A B C D E F G H I J K L M N O P Q R S T U V W X Y Z 0-9

Cheated Hearts Guitar Tabs – Yeah Yeah Yeahs

CD, Sheet music, Poster

Do you like Cheated Hearts? Share with your friends now
Bass TabsTabsTabs v2Tabs v3


INTRO [muted]
(You can [should] mute with your right hand [or left if you are left-handed].)
e|---------|
B|---------|
G|---------|
D|---------|
A|-0-0-0-0-|
E|---------|


PRE-VERSE]
"Jaded by..."
e|------------------|--
B|------------------| |
G|------------------|  X 7
D|------------------| |
A|-0-0-0-0-0-0-12-12| | [with harmonics]
E|------------------|--

e|------------------|
B|------------------|
G|--------------7-7-|
D|--------------7-7-|
A|-0-0-0-0-0-0--5-5-|
E|------------------|


VERSE [guitar & bass]			-----
e|-----0-------0---------0-----|     |
B|-----2-------2-----------2---|     |
G|-----2-------2-------2-----2-|     |
D|-----2-------2------(2)------|     |
A|-0-0-0-0-0-0-0-0-0-0-0-0-0-0-|     |
E|-----------------------------|     |
								     |
e|-----0-------0---------0-----|     |
B|-----2-------2-----------2---|     |
G|-----2-------2-------2-----2-|     |
D|-----2-------2------(2)------|     |
A|-x-x---x-x-x---x-x-x---------|     |
E|-2-2-2-2-2-2-2-2-2-2-2-2-2-2-|     |
									 X 2
e|-----0-------0---------0-----|     |   
B|-----2-------2-----------2---|     |
G|-----2-------2-------2-----2-|     |
D|-----2-------2------(2)------|     |
A|-x-x---x-x-x---x-x-x---------|     |
E|-0-0-0-0-0-0-0-0-0-0-0-0-0-0-|     |
								     |
e|-----0-------0---------0-----|     |
B|-----2-------2-----------2---|     |
G|-----2-------2-------2-----2-|     |
D|-----2-------2------(2)------|     |
A|-x-x---x-x-x---x-x-x---------|     |
E|-2-2-2-2-2-2-2-2-2-2-2-2-2-2-|     |
								-----



INTERLUDE
e|------|------|----0-----|------|
B|-2----|-2----|2-----2---|-2----|
G|-2----|-2----|2-------2-|-2----|
D|-2----|-0----|2---------|-0----|
A|-0----|-2----|0---------|-2----|
E|------|------|----------|------|

[guitar & bass]
"Well i'm... taka-taka.... takin' it off"
e|---------------------------------|	----
B|-----2-------2-------2-------2---|		|
G|-2-------2-------2-------2-------|		|
D|---------------------------------|		|
A|-0-0-0-0-0-0-0-0-0-0-0-0-0-0-0-0-|		|
E|---------------------------------|		|
										|
e|---------------------------------|		|
B|-----2-------2-------2-------2---|		|
G|-2-------2-------2-------2-------|		|
D|---------------------------------|		|
A|-2-2-2-2-2-2-2-2-2-2-2-2-2-2-2-2-|		|
E|---------------------------------|		|
										X 2
e|---------------------------------|		|
B|-----2-------2-------2-------2---|		|
G|-2-------2-------2-------2-------|		|
D|---------------------------------|		|
A|-4-4-4-4-4-4-4-4-4-4-4-4-4-4-4-4-|		|
E|---------------------------------|		|
										|
e|---------0-----2-----2-----2-0---|		|
B|-----2-----2-----2-----2---------|		|
G|-2-----------2-----2-----2-------|		|
D|-0-0-0-0-0-0-0-0-0-0-0-0-0-0-0-0-|		|
A|---------------------------------|		|
E|---------------------------------|	----

HEAVY PART
e|----------------------------------3^--|
B|--------------------------------------|
G|-----5-5-----5-5------12-12-----------|
D|-----5-5-----5-5------12-12-----------|
A|-0-0-----0-0--------------------------|
E|------------------0-0--------0-0------|

e|--------------------------------------|
B|--------------------------------------|
G|-----5-5-----5-5------12-12-----------|
D|-----5-5-----5-5------12-12------///--|
A|-0-0-----0-0---------------------///--|
E|------------------0-0--------0-0------| 

e|----------------------------------3^--|
B|--------------------------------------|
G|-----5-5-----5-5------12-12-----------|
D|-----5-5-----5-5------12-12-----------|
A|-0-0-----0-0--------------------------|
E|------------------0-0--------0-0------|

e|--------------------------------------|
B|--------------------------------------|
G|-----5-5-----5-5------12-12-----------|
D|-----5-5-----5-5------12-12-----------|
A|-0-0-----0-0--------------------------|
E|------------------0-0--------0-0-12/0-| 


RIFF
"uhh uhh uh uh..."
e|--------------------------------------------------|-
B|-------14----------14-----------14----------14----| |
G|-------------14-----------------------14-------14-| |
D|--------------------------------------------------| X 4
A|-12-12-12-12-12-12-12-12--14-14-14-14-14-14-14-14-| |
E|--------------------------------------------------|-

"she takes on high..."
e|--------------------------------------------------|-
B|-------14----------14-----------14----------14----| |
G|-------------14-----------------------14-------14-| |
D|--------------------------------------------------| X 3
A|-12-12-12-12-12-12-12-12--14-14-14-14-14-14-14-14-| |
E|--------------------------------------------------|-

e|--------------------------------------------------|
B|-------14----------14-----------14----------14----|
G|-------------14-----------------------14-------14-|
D|--------------------------------------------------|
A|--------------------------------------------------|
E|-14-14-14-14-14-14-14-14--12-12-12-12-12-12-12-12-|

e|--------------------------------------------------|-
B|-------14----------14-----------14----------14----| |
G|-------------14-----------------------14-------14-| |
D|--------------------------------------------------| X 3
A|-12-12-12-12-12-12-12-12--14-14-14-14-14-14-14-14-| |
E|--------------------------------------------------|-

e|--------------------------------------------------|
B|-------14----------14-----------14----------14----|
G|-------------14-----------------------14-------14-|
D|--------------------------------------------------|
A|--------------------------------------------------|
E|-14-14-14-14-14-14-14-14--12-12-12-12-12-12-12-12-|


GUITAR 1
D|------------------|
A|-0----------------|
E|------------------|

GUITAR 2
INTRO
e|---------|
B|---------|
G|---------|
D|---------|
A|-0-0-0-0-|
E|---------|

PRE-VERSE]
"Cheated by..."
e|------------------|--
B|------------------| |
G|------------------|  X 7
D|------------------| |
A|-0-0-0-0-0-0-12-12| | [with harmonics]
E|------------------|--

VERSE [guitar & bass]
"Now take these rings..."		-----
e|-----0-------0---------0-----|     |
B|-----2-------2-----------2---|     |
G|-----2-------2-------2-----2-|     |
D|-----2-------2------(2)------|     |
A|-0-0-0-0-0-0-0-0-0-0-0-0-0-0-|     |
E|-----------------------------|     |
								     |
e|-----0-------0---------0-----|     |
B|-----2-------2-----------2---|     |
G|-----2-------2-------2-----2-|     |
D|-----2-------2------(2)------|     |
A|-x-x---x-x-x---x-x-x---------|     |
E|-2-2-2-2-2-2-2-2-2-2-2-2-2-2-|     |
									 X 4
e|-----0-------0---------0-----|     |   
B|-----2-------2-----------2---|     |
G|-----2-------2-------2-----2-|     |
D|-----2-------2------(2)------|     |
A|-x-x---x-x-x---x-x-x---------|     |
E|-0-0-0-0-0-0-0-0-0-0-0-0-0-0-|     |
								     |
e|-----0-------0---------0-----|     |
B|-----2-------2-----------2---|     |
G|-----2-------2-------2-----2-|     |
D|-----2-------2------(2)------|     |
A|-x-x---x-x-x---x-x-x---------|     |
E|-2-2-2-2-2-2-2-2-2-2-2-2-2-2-|     |
								-----

HEAVY PART [END]
e|----------------------------------3^--|
B|--------------------------------------|
G|-----5-5-----5-5------12-12-----------|
D|-----5-5-----5-5------12-12-----------|
A|-0-0-----0-0--------------------------|
E|------------------0-0--------0-0------|

e|--------------------------------------|
B|--------------------------------------|
G|-----5-5-----5-5------12-12-----------|
D|-----5-5-----5-5------12-12------///--|
A|-0-0-----0-0---------------------///--|
E|------------------0-0--------0-0------| 

e|----------------------------------3^--|
B|--------------------------------------|
G|-----5-5-----5-5------12-12-----------|
D|-----5-5-----5-5------12-12-----------|
A|-0-0-----0-0--------------------------|
E|------------------0-0--------0-0------|

e|--------------------------------------|
B|--------------------------------------|
G|-----5-5-----5-5------12-12/----------|
D|-----5-5-----5-5------12-12/----------|
A|-0-0-----0-0--------------------------|
E|------------------0-0-----------------| 

--------------------------------------------- 


=)





Comments


Popular Yeah Yeah Yeahs tabs & chords
Runaway 2 Chords
Date With The Night 1 Tabs
Isis Tabs
Maps 3 Tabs
Modern Romance 1 Tabs
Modern Things 1 Tabs
Mr. You're On Fire, Mr Tabs
Warrior Tabs
Y Control 1 Tabs
Warrior Ukulele


Song lyrics



↑ Back to top | Tablatures and chords are parodies/interpretations of the original songs. You may use it for private study, scholarship, research or language learning purposes only
© 2014 AZChords.com Contact us | Privacy policy | DMCA | Add/correct tabs | Request tabs | Top 50 tabs