» » »

Without Taking The Jewel Tabs (ver.1)

Artists:  A B C D E F G H I J K L M N O P Q R S T U V W X Y Z # 

Without Taking The Jewel Tabs (ver.1)

Yasunori Mitsuda
Rating:
5/5 (7 votes)

Hard to play? Try these video lessons and learn fast.
                e~|----------------|--------------|-----2---------------2---------|
B~|----------0-----|--------0-----|---------3---0---2-------2-----|
G~|-----2--------2-|-----2------2-|---------------------------2---|
D~|---0--------0---|---2------2---|---4-------4-------4---------4-|
A~|----------------|-0----0-------|-2-----2-------0-------0-------|
E~|-3-----3--------|--------------|-------------------------------|


|---------------|---------------|---------0------0-|
|---------0-----|---------0-----|-------0---0----0-|
|-----2-------2-|-----2-------2-|-----2-------0--1-|
|---0-------0---|---2-------2---|---2------------2-|
|---------------|-0-----0-------|----------------2-|
|-3-----3-------|---------------|-0----------------|


|----------------|--------------|-----2---------------2---------|
|----------0-----|--------0-----|---------3---0---2-------2-----|
|-----2--------2-|-----2------2-|---------------------------2---|
|---0--------0---|---2------2---|---4-------4-------4---------4-|
|----------------|-0----0-------|-2-----2-------0-------0-------|
|-3-----3--------|--------------|-------------------------------|


|----------------|--------------|-------0--------2-|
|----------0-----|--------0-----|----------------4-|
|-----2--------2-|-----2------2-|-----4---4------4-|
|---0--------0---|---2------2---|---4-------4----4-|
|----------------|-0----0-------|-2-----------2--2-|
|-3-----3--------|--------------|------------------|


|----------------|--------------|------------------------------|
|----------0-----|--------0-----|---------0---------0----2-----|
|-----2--------2-|-----2------2-|-----0-------0--------------3-|
|---0--------0---|---2------2---|---2-------2-----2--------4---|
|----------------|-0----0-------|------------------------------|
|-3-----3--------|--------------|-0-----0-------2-----2--------|

Sorry theres more but I'm too lazy to tab it...plus I'm still trying to figure out more 
the song so yeah...

!!!!!!!BONUS!!!!!!!

|-------2----------------2----------|-------2---------|
|-----0---3---0---------------3-----|-----3-----3-----|
|---------------------0---------0---|---2---------2---|
|---4---------------4-------------4-|-0-------0-----0-|
|-2---------2-----------------------|-----------------|
|----------------3---------3--------|-----------------|


|-----------------|This has  |-3--3-3--2-3-2--2--2-2--3--3-3-3-|
|-------3---2-----|Nothing   |-3--3-3--3-3-3--3--3-3--3--3-3-3-|
|-----2-------2---|To do With|-0--0-0--2-2-2--0--0-0--5--5-5-5-|
|---2-----------2-|The Song  |-2--2-2--0-0-0--4--4-4--5--5-5-5-|
|-0-------0-------|So...     |-3--3-3--0-0-0--2--2-2--3--3-3-3-|
|-----------------|Yeah!!!   |---------------------------------|        
            
Hard to play? Try these video lessons and learn fast. | Correct




comments powered by Disqus
↑ Back to top | Tablatures and chords are parodies/interpretations of the original songs. You may use it for private study, scholarship, research or language learning purposes only