» » »

Yasunori Mitsuda, Wind Scene Chrono Trigger Tabs (ver.1)

Artists:  A B C D E F G H I J K L M N O P Q R S T U V W X Y Z # 

Wind Scene Chrono Trigger Tabs (ver.1)

Yasunori Mitsuda Tabs
Rating:
0/5 (0 votes)
Wind Scene Chrono Trigger lessons Tabs too difficult? Try these video lessons and learn fast
                Guitar
     H         Q     Q          E   E   E   E   E  E   E   E
E||-----------10----12----||---13--12---0------10---------10--|
B||-----------------------||-----------13--10-----------------|
G||-----------------------||*---------------------------------|
D||-----------------------||*---0-----------0---------10------|
A||-----------------------||-------12--------------8----------|
E||-----------------------||--------------------6----------6--|

  E   E  E  E  E  E  E  E     E  E  E  E   E  E   E  E
--8---------3--5-----3-----|--0-----5--8--12-----13-----|
-----10--6--------6-----5--|-----6--5-------------------|
------------5--------------|---------------0---------0--|
---------------3-----2-----|--0--7------------0---------|
--0---7--3-----------------|----------------------------|
---------------------------|----------------------------|

  E  E  E  E  Q     Q        E   E   E   E   E  E   E   E
--8----------------12----|--13--12---0------10---------10--|
-----------6--5----------|----------13--10-----------------|
-----0--7-----5----------|---------------------------------|
-------------------------|---0-----------0---------10------|
--7----------------------|------12--------------8----------|
-------------------------|-------------------6----------6--|

  E   E  E  E  E  E  E  E     E  E  E  E   E   E  E   E
--8---------3--5-----3-----|--0-----5--8--12--10--8--10--|
-----10--6--------6-----5--|-----6--5----------8-----10--|
------------5--------------|---------------0-------------|
---------------3-----2-----|--0--7-----------------------|
--0---7--3-----------------|----------------------0------|
---------------------------|-----------------------------|

   E  E  E  E  Q    Q       E  E  E  E  Q.     E     E  E  E  E  Q    Q
--10----------------0----|-----0------------------|------------------------|
------------8--7---------|--6-----------3------3--|--1---------------------|
---------9-----7---------|--------5--2------------|--0--2-----0--2----0----|
---0--7------------------|--3-----------3---------|--2-----3-----3----2----|
-------------------------|--5-----------1---------|--0-----3-----5----4----|
-------------------------|------------------------|------------------------|

  E  E  E  E  Q    Q       H        Q    Q       E  E  E  E  Q.     E
--------------0----1----|----------------0----|-----0------------------|
------------------------|--1------------------|--6-----------3------3--|
--------2--5------------|---------------------|--------5--2------------|
--2--3--------3---------|--3--------2---------|--3-----------3---------|
--5---------------------|--3------------------|--5-----------1---------|
--------------3---------|---------------------|------------------------|

 
 E  E  E  E  Q    Q       E  E  E  E  E  E  E  E     H        Q.     E
------------------------|--------------0-----------|------------------5--|
--1---------------------|-----------------3--1--3--|--3------------------|
--0--2-----0--2----0----|--------2--5--------------|--0------------------|
--2-----3-----3----2----|--2--3--------------------|-----------4---------|
--0-----3-----5----4----|--5-----------------0-----|--5------------------|
------------------------|--------------3-----------|---------------------|

  E  E  E  E  E  E  E  E      E  E  E  E  E  E  E  E
--5-----------------------|---------------------------|
--6-----------8-----6-----|---------------6-----8-----|
--------------9-----7-----|---9-----------7-----9-----|
--------------------------|--10-----------------------|
--------------------------|---------------------------|
--6--6-----6--6--6-----6--|---6--6-----6--6--6-----6--|

  E  E  E  E  E  E  E  E     E  E  E  E  E  E  E  E
--------------------------|--------------------0-----|
--5-----------------1-----|--------------------1-----|
--5-----------------2-----|--------------------------|
--------------------------|--3-----2-----3--------0--|
--0--0-----0--0--0-----0--|--5--5-----5--5--5--------|
--------------------------|--------------------------|

  E  E  E  E  E  E  E  E     E  E  E  E  E  E  E  E
--------------------------|--0-----------1-----3-----|
--------------1-----3-----|--1-----------3-----5-----|
--3-----------2-----3-----|--------------------------|
--5-----------------------|--------------------------|
--------------------------|--3--3-----3--3--3-----3--|
--3--3-----3--3--3-----3--|--------------------------|

  E  E  E  E  E  E  E  E     E  E  E  E  E  E  E  E
--0-----------------------|--------------------------|
--1-----------------------|--1-----------------------|
--------2-----0-----2-----|--------------0--2--3--5--|
--------------------------|--1-----3-----------------|
--------------------------|--------------------------|
--1--1-----1--1--1-----1--|--1--1-----1--1--1--------|

  E  E  E  E  E  E  E  E      E  E  E  E  E  E  E  E
--5-----------------------|---------------------------|
--6-----------8-----6-----|---------------6-----8-----|
--------------9-----7-----|---9-----------7-----9-----|
--------------------------|--10-----------------------|
--------------------------|---------------------------|
--6--6-----6--6--6-----6--|---6--6-----6--6--6-----6--|







   E  E  E  E  E  E  E  E     E  E  E  E  E  E  E  E
---------------------------|--0-----------0-----------|
--10-----------8-----6-----|--------------------6-----|
--10-----------9-----7-----|--------7-----------------|
---------------------------|--7-----------------------|
---------------------------|--5-----------------------|
---7--7-----7--7--7-----7--|--7--7-----7--7--7-----7--|

  E  E  E  E  E  E  E  E     E  E  E  E  E  E  E  E
--5-----------3-----1-----|--0-----------------------|
--------------------------|--0-----3-----2-----3-----|
--2-----------------------|--------------------------|
--0--0-----0--0--0-----0--|--0--0-----0--0--0-----0--|
--------------------------|--------------------------|
--3--3-----3--3--3-----3--|--4--4-----4--4--4-----4--|

  E  E  E  E  E  E  E  E     H         Q     Q
--0-----------------------|--0--------10----12-----||
--0-----------------------|------------------------||
--------------------------|-----------------------*||
--------------------------|-----------------------*||
--5--5-----5--5--5-----5--|--4---------------------||
--5--5-----5--5--5-----5--|--5---------------------||

Duration Legend
---------------
W - whole
H - half
Q - quarter
E - 8th
S - 16th
T - 32nd
X - 64th
. - note dotted
|-n-|  - n-tuplets
            

comments powered by Disqus
↑ Back to top | Yasunori Mitsuda Tabs for Wind Scene Chrono Trigger. Lyrics for acoustic guitar and electric guitar. Tablatures and chords are parodies/interpretations of the original songs. You may use it for private study, scholarship, research or language learning purposes only