» » »

The Wind The Stars And The Waves Tabs (ver.1)

Artists:  A B C D E F G H I J K L M N O P Q R S T U V W X Y Z # 

The Wind The Stars And The Waves Tabs (ver.1)

Yasunori Mitsuda
Rating:
5/5 (8 votes)

Hard to play? Try these video lessons and learn fast.
                The Wind, The Stars, and the Waves
Yasunori Mitsuda
Chrono Cross OST

Standard tuning
-------------------------------------------------------------------
The Wind, The Stars, and the Waves

Intro:

   Guitar 1:
e|----------------------------------------------------------------|
B|----------------------------------------------------------------|
G|----------------7-----------------------------------------------|
D|--7---7--9--10---------7----7---9--10--9h10---------------------|
A|---------------------------------------------10-----------------|
E|----------------------------------------------------------------|
 |
 | Guitar 2:
 |  F5     G5                     G5
e|----------------------------------------------------------------|
B|----------------------------------------------------------------|
G|----------------------------------------------------------------|
D|--3------5----------------------5-------------------------------|
A|--3------5----------------------5-------------------------------|
E|--1------3-------------1--------3-------------------------------|

e|----------------------------------------------------------------|
B|----------------------------------------------------------------|
G|----------------7-------9--10--9h10p9--7------------------------|
D|--7---7--9--10-----9----------------------10--12--10h12p10--9---|
A|----------------------------------------------------------------|
E|----------------------------------------------------------------|
 |
 |  F5     G5            A5                 G5
e|----------------------------------------------------------------|
B|----------------------------------------------------------------|
G|----------------------------------------------------------------|
D|--3------5-------------7------------------5---------------------|
A|--3------5-------------7------------------5---------------------|
E|--1------3-------------5------------------3---------------------|

e|----------------------------------------------------------------|
B|----------------------------------------------------------------|
G|----------------7-----------------------------------------------|
D|--7---7--9--10---------7----7---9--10--9h10---------------------|
A|---------------------------------------------10-----------------|
E|----------------------------------------------------------------|
 |
 |  F5     G5                     G5
e|----------------------------------------------------------------|
B|----------------------------------------------------------------|
G|----------------------------------------------------------------|
D|--3------5----------------------5-------------------------------|
A|--3------5----------------------5-------------------------------|
E|--1------3-------------1--------3-------------------------------|

e|-------------------------------|
B|-------------------------------|
G|----------------7--------------|
D|--7---7--9---10----9--7--------|
A|-------------------------------|
E|-------------------------------|
 |
 |  F5     G5           Gsus2
e|-------------------------------|
B|-------------------------------|
G|-------------------------------|
D|--3------5------------7--------|  End Intro.
A|--3------5------------5--------|
E|--1------3------------3--------|

    Gsus2(X)
e|--10----------------------10------------------------------------|
B|--10----10----------10----10----10----------10------------------|
G|-----12----12----12----12----12----12----12----12---------------|
D|----------------------------------------------------------------|  x2
A|--------------10----------------------10------------------------|
E|----------------------------------------------------------------|


Part 1:

    Guitar 1:
e|----------------------------------------------------------------|
B|----------------------------------------------------------------|
G|-----------12--12---12--14--12h14p12----------------------------|
D|--10---12-----------------------------15--14--15--12------------|
A|----------------------------------------------------------------|
E|----------------------------------------------------------------|
 |
 |  Guitar 2:
    Gsus2(X)
e|-------10----------------------10------------------------------------|
B|-------10----10----------10----10----10----------10------------------|
G|----------12----12----12----12----12----12----12----12-----repeat----|
D|---------------------------------------------------------until part--|
A|-------------------10----------------------10---------------two------|
E|---------------------------------------------------------------------|

    Guitar 1:
e|----------------------------------------------------------------|
B|----------------------------------------------------------------|
G|----------------------------------------------------------------|
D|--10---12---15--15--14--12-10-12-14-12--------------------------|
A|----------------------------------------------------------------|
E|----------------------------------------------------------------|


e|----------------------------------------------------------------|
B|----------------------------------------------------------------|
G|-----------12--12---12--14--12h14p12----------------------------|
D|--10---12-----------------------------15--14--15--12------------|
A|----------------------------------------------------------------|
E|----------------------------------------------------------------|


e|-------------------------------------------------------------------|
B|----------13--/13--12--10------------------------------------------|
G|---------------------------12---10---12----------------------------|
D|--12--14-----------------------------------------------------------|
A|-------------------------------------------------------------------|
E|-------------------------------------------------------------------|

   (Insturment abbed for guitar)
e|----------------------------------------------------------------|
B|--12--13--10--13--12-------------12--13--10--13--12-------------|
G|---------------------12--14--10----------------------12--14-----|
D|----------------------------------------------------------------|
A|----------------------------------------------------------------|
E|----------------------------------------------------------------|


e|----------------------------------------------------------------|
B|--12--13--10--13-12------------12--13--10-----------------------|
G|--------------------12--14--10-------------10--12---------------|
D|----------------------------------------------------------------|
A|----------------------------------------------------------------|
E|----------------------------------------------------------------|

Part 2:

    Guitar 1:
e|-------------------10-------------------------------------------|
B|--*10---10--12--13------*10---10--12--13--12h13p12--------------|
G|---------------------------------------------------12-----------|
D|----------------------------------------------------------------|
A|----------------------------------------------------------------|
E|----------------------------------------------------------------|


e|-------------------10------12--13--12h13p12--10--------------------|
B|--*10---10--12--13-----12-----------------------13--15--13h15p13---|
G|----------------------------------------------------------------12-|
D|-------------------------------------------------------------------|
A|-------------------------------------------------------------------|
E|-------------------------------------------------------------------|


e|------------------10--------------------------------------------|
B|--*10---10--12--13------*10---10--12--13--12h13p12--------------|
G|---------------------------------------------------12-----------|
D|----------------------------------------------------------------|
A|----------------------------------------------------------------|
E|----------------------------------------------------------------|


e|-------------------10-------------------------------------------|
B|--*10---10--12--13----12--*10-----------------------------------|
G|----------------------------------------------------------------|
D|----------------------------------------------------------------|
A|----------------------------------------------------------------|
E|----------------------------------------------------------------|


Note:  Notes marked with the *'s are pinch harmonics on that note.

Intro
Part 1
part 2
part 1
part 2
repeat until fade
            
Hard to play? Try these video lessons and learn fast. | Correct




comments powered by Disqus
↑ Back to top | Tablatures and chords are parodies/interpretations of the original songs. You may use it for private study, scholarship, research or language learning purposes only