» » »

Yasunori Mitsuda, Home Guldove Tabs (ver.1)

Artists:  A B C D E F G H I J K L M N O P Q R S T U V W X Y Z # 

Home Guldove Tabs (ver.1)

Yasunori Mitsuda Tabs
 Rating:
4.6/5 (9 votes)
Home Guldove lessons Tabs too difficult? Try these video lessons and learn fast
1
                                            home guldove-yashunori mitsuda
-------------------------------------------------------------------------------

Tuning:standard


INTRO 0:00 - 0:28
|------------------------------------------------------------|
|15--12--15-13------13-12----------------------------12------|
|---------------14---------12--14-----------11-12-13---------|
|------------------------------------12--14------------------|
|------------------------------------------------------------|
|------------------------------------------------------------|

|--------------------------------------------|
|15--12--15-13------13-12--------------------|
|---------------14---------12--14------12----|
|-----------------------------------12----14-|
|--------------------------------------------|
|--------------------------------------------|

|--------------------------------------------|
|-----------------15---13--12h13p12----------|
|11--12--14-12---------------------14-12-----|
|--------------12----------------------------|
|--------------------------------------------|
|--------------------------------------------|

|--------------------------------------------|
|--------------------------------------------|
|14--12---9-11-12---12h14p12p11---12~--------|
|--------------------------------------------|
|--------------------------------------------|
|--------------------------------------------|

(percussion and bass begin)

0:34 - 0:59
|------------------------------------------------------------|
|15--12--15-13------13-12----------------------------12------|
|---------------14---------12--14-----------11-12-13---------|
|------------------------------------12--14------------------|
|------------------------------------------------------------|
|------------------------------------------------------------|

|------------------------------------------------------------|
|15--12--15-16--15--13-12------12--13---13-12h13p12----------|
|--------------------------14-----------------------14-12----|
|------------------------------------------------------------|
|------------------------------------------------------------|
|------------------------------------------------------------|

|------------------------------------------------------------|
|15--12--15-13------13-12----------------------------12------|
|---------------14---------12--14-----------11-12-13---------|
|------------------------------------12--14------------------|
|------------------------------------------------------------|
|------------------------------------------------------------|

|------------------------------------------------------------|
|15--12--15-16--15--13-12------12--13---13-12h13p12----------|
|--------------------------14-----------------------14-12----|
|------------------------------------------------------------|
|------------------------------------------------------------|
|------------------------------------------------------------|


0:59 - 1:08
|--------------------------------------------|
|15--12--15-13------13-12--------------------|
|---------------14---------12--14------12----|
|-----------------------------------12----14-|
|--------------------------------------------|
|--------------------------------------------|

|--------------------------------------------|
|-----------------15---13--12h13p12----------|
|11--12--14-12---------------------14-12-----|
|--------------12----------------------------|
|--------------------------------------------|
|--------------------------------------------|

|--------------------------------------------|
|--------------------------------------------|
|14--12---9-11-12---12h14p12p11----12~-------|
|-------------------------------12-----------|
|--------------------------------------------|
|--------------------------------------------|

1:11 - 1:33

|--------------------------------------------------------|
|--------------15-15-13p12-------------------------------|
|14-12---11-12------------14---12--14-12--11-------------|
|--------------------------------------------12----------|
|-----------------------------------------------12-14----|
|--------------------------------------------------------|

|--------------------------------------------------------|
|--------------------------------------------------------|
|-------7----9-------11h12p11h12p11h12p11h12p11h12p11h12-|
|7-9-10---10---10----------------------------------------|
|-----------------12-------------------------------------|
|--------------------------------------------------------|

|--------------------------------------------------------|
|------12-----12-13--12----------------------------------|
|12-14-----14-----------14-12-14----------14-------------|
|----------------------------------14--12----12---12-14--|
|--------------------------------------------------------|
|--------------------------------------------------------|

1:33 - 1:52

|--------------------------------------------------------|
|--------------------------------------------------------|
|11--11-11-12--12----------------------------------------|
|-----------------11~---14--14-14-15--15-----------------|
|----------------------------------------15~-------------|
|--------------------------------------------------------|

|--------------------------------------------------------|
|-------------------------13---12------------------------|
|----------------------------------12~-------------------|
|12--12-12-13--13----------------------------------------|
|-----------------13~------------------------------------|
|--------------------------------------------------------|

|--------------------------------------------------------|
|--------------------------------------12-13---12--------|
|9--9--9-11--12--11-12~----------12-14------------14-12~-|
|--------------------------------------------------------|
|--------------------------------------------------------|
|--------------------------------------------------------|

The song repeats from the beginning after that. enjoy
            
Submit corrections

comments powered by Disqus
↑ Back to top | Yasunori Mitsuda Tabs for Home Guldove. Lyrics for acoustic guitar and electric guitar. 1 Tablatures and chords are parodies/interpretations of the original songs. You may use it for private study, scholarship, research or language learning purposes only