» » »

Sound The Alarm For Us Tonight Bass tabs (ver.1)

Artists:  A B C D E F G H I J K L M N O P Q R S T U V W X Y Z # 

Sound The Alarm For Us Tonight Bass tabs (ver.1)

Yashin
Rating:
0/5 (0 votes)

Tabs too difficult? Try these video lessons and learn fast.
                Sound The Alarm (For Us Tonight)
Yashin
We Created A Monster (2012)

This is the tab for Sound The Alarm by Yashin.
This is one of my favourite songs, and is easy and really fun to play!
Drop C Required :)

Intro
F)--------------------------------------|
C)--------------------------------------|
G)----------------------4-4-4-4---------|
C)-13/1-1-1-1-1-1-1-1-1---------3-3-3-3-|

F)-----------------------------------|
C)-----------------------------------|
G)-------------------4-4-4-4---------|
C)-1-1-1-1-1-1-1-1-1---------5-5-5-5-|

F)-----------------------------------|
C)-----------------------------------|
G)-2-2-2-2-2-2-2-2-2---------4-4-4-4-| x2
C)-------------------3-3-3-3---------|

Verse
F)---------------------------------|
C)---------------------------------|
G)---------------------------------| x2
C)-1-1-1-1-1-1-1-1-5-5-5-5-3-3-3-3-|

F)-----------------------------------------------------------------|
C)-----------------------------------------------------------------|
G)-----------------------------------------------------------------|
C)-5-5-5-5-5-5-5-5-1-1-1-1-1-1-1-1-1-1-1-1-1-1-1-1-5-5-5-5-1-1-1-1-|

Pre-chorus
F)---------------------------------|
C)---------------------------------|
G)---------------------------------|
C)-3-3-3-3-3-3-3-3-5-5-5-5-5-5-5-5-|

Chorus
F)--------------------------------------|
C)--------------------------------------|
G)----------------------4-4-4-4---------|
C)-13/1-1-1-1-1-1-1-1-1---------3-3-3-3-|

F)-----------------------------------|
C)-----------------------------------|
G)-------------------4-4-4-4---------|
C)-1-1-1-1-1-1-1-1-1---------5-5-5-5-|

F)-----------------------------------|
C)-----------------------------------|
G)-2-2-2-2-2-2-2-2-2---------4-4-4-4-| x2
C)-------------------3-3-3-3---------|

Second Verse
F)-----------------------------------------------------------------|
C)-----------------------------------------------------------------|
G)-4-4-4-4---------4-4-4-4--4-4-4--4-4-4-4-4-4-4-4-4-4-4-4-2-2-2-2-|
C)---------5-5-5-5-------------------------------------------------|

F)--------|
C)--------|
G)-4(x32)-
C)--------

Chorus
F)--------------------------------------|
C)--------------------------------------|
G)----------------------4-4-4-4---------| x2
C)-13/1-1-1-1-1-1-1-1-1---------5-5-5-5-|

F)-----------------------------------|
C)-----------------------------------|
G)-2-2-2-2-2-2-2-2-2---------4-4-4-4-| x2
C)-------------------3-3-3-3---------|

Bridge
F)-----------------------------------------------------------------|
C)-----------------------------------------------------------------|
G)-2-2-2-2-2-2-2-2-----------------4-4-4-4-4-4-4-4-4-4-4-4-4-4-4-4-| x2
C)-----------------3-3-3-3-3-3-3-3---------------------------------|

F)--------------|
C)--------------|
G)-2~2-----4~---|
C)-----3~3----3-|

F)------------|
C)------------|
G)-2~2-----4~-|
C)-----3~3----|

Interlude
F)-------------------------------------------------------------------|
C)-------------------------------------------------------------------|
G)-------------------4-4-4-4-------------------------4-4-4-4-4-4-4-4-|
C)-1-1-1-1-1-1-1-1-1---------5-5-5-5-1-1-1-1-1-1-1-1-----------------|

Final Chorus
F)---------------------------------------------------|
C)---------------------------------------------------|
G)-2-2-2-2-2-2-2-2-2-----------------4-4-4-4-4-4-4-4-| x2
C)-------------------3-3-3-3-3-3-3-3-----------------|
-break-
F)---------------------|
C)---------------------|
G)---------------------|
C)-1-1-1--1-1-1--1-1-1-|
-break-
F)-----------------------|
C)-----------------------|
G)---------------------4-|
C)-1-1-1--1-1-1--1-1-1---|
            
Tabs too difficult? Try these video lessons and learn fast.


comments powered by Disqus
↑ Back to top | Tablatures and chords are parodies/interpretations of the original songs. You may use it for private study, scholarship, research or language learning purposes only