» » »

Yashin, Hope Bass tabs (ver.1)

Artists:  A B C D E F G H I J K L M N O P Q R S T U V W X Y Z # 

Hope Bass tabs (ver.1)

Yashin Tabs
 Rating:
4.2/5 (5 votes)
Hope lessons Tabs too difficult? Try these video lessons and learn fast
1
                Yashin - Hope

   Intro.

   I've watched the strongest fall...

C|--------------------------------------------------|
G|-------------------------3/5--5--5-5--3-5--5--5-5-|
C|-7--7--7-7--8-7--7--7-7---------------------------|
F|--------------------------------------------------|

C|--------------------------------------------------|
G|-------------------------3/5--5--5-5--3-5--5--5-5-|
C|-7--7--7-7--8-7--7--7-7---------------------------|
F|--------------------------------------------------|

C|--------------------------------------------------|
G|--------------------------5--5--5-5--3-5--5--5-5--|
C|-5--5--5-5--3-5--5--5-5/7-------------------------|
F|--------------------------------------------------|

C|-----------------------0--0--0--0-|
G|---------------------3------------|
C|-3--3--3-3--2-3--3/5--------------|
F|----------------------------------|

   And the rain came down...

C|-8-8-8-8-8-8-8-8-3-3-3-3-3-3-3-3-0-0-0-0-0-0-0-0-7-7-7-7-7-7-7-7-|
G|-----------------------------------------------------------------|
C|-----------------------------------------------------------------|
F|-----------------------------------------------------------------|

C|-8-8-8-8-8-8-8-8-3-3-3-3-3-3-3-3-----------------7-7-7-7-7-7-7-7-|
G|---------------------------------5-5-5-5-5-5-5-5-----------------|
C|-----------------------------------------------------------------|
F|-----------------------------------------------------------------|

C|-8-8-8-8-8-8-8-8-10-10-10-10-10-10-10-10-5-5-5-5-5-5-5-5-7-7-7-7-7-7-7-7-|
G|-------------------------------------------------------------------------|
C|-------------------------------------------------------------------------|
F|-------------------------------------------------------------------------|

C|-8-8-8-8-8-8-8-8-10-10-10-10-10-10-10-10-5-5-5-5-5-5-5-5-7-7-7-7-7-7-7-7-|
G|-------------------------------------------------------------------------|
C|-------------------------------------------------------------------------|
F|-------------------------------------------------------------------------|

   You give me hope for what's to come...

C|--------------------------------------------------|
G|-------------------------3/5--5--5-5--3-5--5--5-5-|
C|-7--7--7-7--8-7--7--7-7---------------------------|
F|--------------------------------------------------|

C|--------------------------------------------------|
G|-------------------------3/5--5--5-5--3-5--5--5-5-|
C|-7--7--7-7--8-7--7--7-7---------------------------|
F|--------------------------------------------------|

   Save it...

C|-/8-8-8-8--/8-8-8-8-10-10-10-0-0-0-12\--0-0-0-1-2-2-3-3-3--3-3-3-3-5-5-5-|
G|-------------------------------------------------------------------------|
C|-------------------------------------------------------------------------|
F|-------------------------------------------------------------------------|

C|-0-0-0-0-0-0-0-0-0-0-0-0-0-0-0-0-|
G|---------------------------------|
C|---------------------------------|
F|---------------------------------|

   And the rain came down...

C|-8-8-8-8-8-8-8-8-3-3-3-3-3-3-3-3-0-0-0-0-0-0-0-0-7-7-7-7-7-7-7-7-|
G|-----------------------------------------------------------------|
C|-----------------------------------------------------------------|
F|-----------------------------------------------------------------|

C|-8-8-8-8-8-8-8-8-3-3-3-3-3-3-3-3-----------------7-7-7-7-7-7-7-7-|
G|---------------------------------5-5-5-5-5-5-5-5-----------------|
C|-----------------------------------------------------------------|
F|-----------------------------------------------------------------|

C|-8-8-8-8-8-8-8-8-10-10-10-10-10-10-10-10-5-5-5-5-5-5-5-5-7-7-7-7-7-7-7-7-|
G|-------------------------------------------------------------------------|
C|-------------------------------------------------------------------------|
F|-------------------------------------------------------------------------|

C|-8-8-8-8-8-8-8-8-10-10-10-10-10-10-10-10-5-5-5-5-5-5-5-5-7-7-7-7-7-7-7-7-|
G|-------------------------------------------------------------------------|
C|-------------------------------------------------------------------------|
F|-------------------------------------------------------------------------|

   Breakdown.

C|-8-8-8-8-8-8-8-8-3-3-3-3-3-3-3-3-0-0-0-0-0-0-0-0-7-7-7-7-7-7-7-7-|
G|-----------------------------------------------------------------|
C|-----------------------------------------------------------------|
F|-----------------------------------------------------------------|

C|-8-8-8-8-8-8-8-8-3-3-3-3-3-3-3-3-0-0-0-0-0-0-0-0-7-7-7-7-7-7-7-7-|
G|-----------------------------------------------------------------|
C|-----------------------------------------------------------------|
F|-----------------------------------------------------------------|

C|-8-8-8-8-8-8-8-8-10-10-10-10-10-10-10-10-5-5-5-5-5-5-5-5-7-7-7-7-7-7-7-7-|
G|-------------------------------------------------------------------------|
C|-------------------------------------------------------------------------|
F|-------------------------------------------------------------------------|

C|-8-8-8-8-8-8-8-8-10-10-10-10-10-10-10-10-5-5-5-5-5-5-5-5-7-7-7-7-7-7-7-7-|
G|-------------------------------------------------------------------------|
C|-------------------------------------------------------------------------|
F|-------------------------------------------------------------------------|

   What's happening to me?...

C|-/8-8-8-8--/8-8-8-8-10-10-10-0-0-0-12\--0-0-0-1-2-2-3-3-3--3-3-3-3-5-5-5-|
G|-------------------------------------------------------------------------|
C|-------------------------------------------------------------------------|
F|-------------------------------------------------------------------------|

C|-0-0-0-0-0-0-0-0-0-0-0-0-12-12-12-12-|
G|-------------------------------------|
C|-------------------------------------|
F|-------------------------------------|

   And the rain came down...

C|-8--------3----5-5--0-0-0-0-0-0-0-0-7-7-7-7-7-7-7-7-|
G|----------------------------------------------------|
C|----------------------------------------------------|
F|----------------------------------------------------|

C|-8-8-8-8-8-8-8-8-3-3-3-3-3-3-3-3-0-0-0-0-0-0-0-0-7-7-7-7-7-7-7-7-|
G|-----------------------------------------------------------------|
C|-----------------------------------------------------------------|
F|-----------------------------------------------------------------|

C|-8-8-8-8-8-8-8-8-10-10-10-10-10-10-10-10-5-5-5-5-5-5-5-5-7-7-7-7-7-7-7-7-|
G|-------------------------------------------------------------------------|
C|-------------------------------------------------------------------------|
F|-------------------------------------------------------------------------|

C|-8-8-8-8-8-8-8-8-10-10-10-10-10-10-10-10-5--5--5--5--5--5-7-7-7----------|
G|-------------------------------------------------------------------------|
C|-------------------------------------------------------------------------|
F|-------------------------------------------------------------------------|

   Enjoy!
            
Submit corrections

comments powered by Disqus
↑ Back to top | Yashin Bass for Hope. Lyrics for acoustic guitar and electric guitar. 1 Tablatures and chords are parodies/interpretations of the original songs. You may use it for private study, scholarship, research or language learning purposes only