» » »

Yashin, Friends In High Places Tabs (ver.1)

Artists:  A B C D E F G H I J K L M N O P Q R S T U V W X Y Z # 

Friends In High Places Tabs (ver.1)

Yashin Tabs
 Rating:
4.3/5 (6 votes)
Friends In High Places lessons Tabs too difficult? Try these video lessons and learn fast
1
                ^ = pinch harmonic
p = Pull off
h = hammer on
* = palm mute
/ = slide


00:01 - 00:24

D|--------------------------------------------------------------| x4
A|--------------------------------------------------------------|
F|--------------------------------------------------------------|
C|-----------3h5---3h5------3h5-------------3h5---3h5--2----2---|
G|-3-3h5p3p0-3h5-0-3h5-3-00-3h5-0-3-3h5p3p0-3h5-0-3h5----00---3-|
C|-----------3h5-0-3h5---00-3h5-0-----------3h5-0-3h5----00-----|
pm               *       **     *               *        **

00:24 - 00:28

D|---------------------------------------------------|
A|---------------------------------------------------|
F|---------------------------------------------------|
C|-8888888888888888-10101010101010101010101010101010-|
G|-8888888888888888-10101010101010101010101010101010-|
C|-8888888888888888-10101010101010101010101010101010-|

00:29 - 00:40

D|----------------------------------| x2
A|----------------------------------|
F|----------------------------------|
C|-88888-888888-000000-101010101010-|
G|-88888-888888-000000-101010101010-|
C|-88888-888888-000000-101010101010-|

00:40 - 00:52

D|--------------------------------------------| x2
A|--------------------------------------------|
F|--------------------------------------------|
C|-8888888888888888-00000000-1010101010101010-|
G|-8888888888888888-00000000-1010101010101010-|
C|-8888888888888888-00000000-1010101010101010-|

00:52 - 01:15

D|--------------------------------------------------------------| x4
A|--------------------------------------------------------------|
F|--------------------------------------------------------------|
C|-----------3h5---3h5------3h5-------------3h5---3h5--2----2---|
G|-3-3h5p3p0-3h5-0-3h5-3-00-3h5-0-3-3h5p3p0-3h5-0-3h5----00---3-|
C|-----------3h5-0-3h5---00-3h5-0-----------3h5-0-3h5----00-----|
pm               *       **     *               *        **

01:15 - 01:21

D|---------------------------------------------------------|
A|---------------------------------------------------------|
F|---------------------------------------------------------|
C|-8888888888888888-10101010101010101010101010101010-0-3-5-|
G|-8888888888888888-10101010101010101010101010101010-0-3-5-|
C|-8888888888888888-10101010101010101010101010101010-0-3-5-|

01:21 - 01:25

D|---------------------------------------------------|
A|---------------------------------------------------|
F|---------------------------------------------------|
C|-8888888888888888-10101010101010101010101010101010-|
G|-8888888888888888-10101010101010101010101010101010-|
C|-8888888888888888-10101010101010101010101010101010-|

01:25 - 01:27

D|---------------|
A|-^-------------|
F|-9h10p9/7--5h7-|
C|---------------|
G|---------------|
C|---------------|

01:27 - 01:38

D|----------------------------------| x2
A|----------------------------------|
F|----------------------------------|
C|-88888-888888-000000-101010101010-|
G|-88888-888888-000000-101010101010-|
C|-88888-888888-000000-101010101010-|

01:38 - 01:49

D|--------------------------------------------| x2
A|--------------------------------------------|
F|--------------------------------------------|
C|-8888888888888888-00000000-1010101010101010-|
G|-8888888888888888-00000000-1010101010101010-|
C|-8888888888888888-00000000-1010101010101010-|

01:49 - 02:00

D|-------|
A|-------|
F|-------|
C|-0~-0~-|
G|-0~-0~-|
C|-0~-0~-|

02:00 - 02:24

D|----------------------------------------|
A|----------------------------------------|
F|----------------------------------------|
C|----------------------------------------|
G|-00000-00000-0-00000--00000-00000-00000-|
C|-00000-00000-0-00000--00000-00000-00000-|
pm ***** ***** * *****  ***** ***** *****

D|-------------------------------------------|
A|-------------------------------------------|
F|-------------------------------------------|
C|-------------------------------------------|
G|-00000-00000-0-00000--00000-00000-00000000-|
C|-00000-00000-0-00000--00000-00000-00000000-|
pm ***** ***** * *****  ***** ***** ********

D|---------------------------------------------------------------------|
A|---------------------------------------------------------------------|
F|---------------------------------------------------------------------|
C|---------------------------------------------------------------------|
G|-000~-000~-0-000-000-000-0-0-0-0-0-000-000~-0~-000-000-000-0-0-0-0-0-|
C|-000~-000~-0-000-000-000-0-0-0-0-0-000-000~-0~-000-000-000-0-0-0-0-0-|
pm ***  ***  * *** *** *** * * * * * *** ***  *  *** *** *** * * * * *

02:24 - 02:30

D|---------------------------------------------------------|
A|---------------------------------------------------------|
F|---------------------------------------------------------|
C|-8888888888888888-10101010101010101010101010101010-0-3-5-|
G|-8888888888888888-10101010101010101010101010101010-0-3-5-|
C|-8888888888888888-10101010101010101010101010101010-0-3-5-|

02:30 - 02:34

D|---------------------------------------------------|
A|---------------------------------------------------|
F|---------------------------------------------------|
C|-8888888888888888-10101010101010101010101010101010-|
G|-8888888888888888-10101010101010101010101010101010-|
C|-8888888888888888-10101010101010101010101010101010-|

02:34 - 02:35

D|---------------|
A|-^-------------|
F|-9h10p9/7--5h7-|
C|---------------|
G|---------------|
C|---------------|

02:35 - 02:46

D|----------------------------------| x2
A|----------------------------------|
F|----------------------------------|
C|-88888-888888-000000-101010101010-|
G|-88888-888888-000000-101010101010-|
C|-88888-888888-000000-101010101010-|

02:46 - 02:58

D|--------------------------------------------| x2
A|--------------------------------------------|
F|--------------------------------------------|
C|-8888888888888888-00000000-1010101010101010-|
G|-8888888888888888-00000000-1010101010101010-|
C|-8888888888888888-00000000-1010101010101010-|

02:58 - 3:22

D|--------------------------------------------------------------| x3
A|--------------------------------------------------------------|
F|--------------------------------------------------------------|
C|-----------3h5---3h5------3h5-------------3h5---3h5--2----2---|
G|-3-3h5p3p0-3h5-0-3h5-3-00-3h5-0-3-3h5p3p0-3h5-0-3h5----00---3-|
C|-----------3h5-0-3h5---00-3h5-0-----------3h5-0-3h5----00-----|
pm               *       **     *               *        **

D|----------------------------------------------|
A|----------------------------------------------|
F|----------------------------------------------|
C|-----------3h5---3h5------3h5-------------3h5-|
G|-3-3h5p3p0-3h5-0-3h5-3-00-3h5-0-3-3h5p3p0-3h5-|
C|-----------3h5-0-3h5---00-3h5-0-----------3h5-|
pm               *       **     *
            
Submit corrections

comments powered by Disqus
↑ Back to top | Yashin Tabs for Friends In High Places. Lyrics for acoustic guitar and electric guitar. 1 Tablatures and chords are parodies/interpretations of the original songs. You may use it for private study, scholarship, research or language learning purposes only