» » »

Friends In Higher Places Tabs (ver.1)

Artists:  A B C D E F G H I J K L M N O P Q R S T U V W X Y Z # 

Friends In Higher Places Tabs (ver.1)

Yashin
Rating:
0/5 (0 votes)

Hard to play? Try these video lessons and learn fast.
                
Band: Yashin
Tuning: Drop C


d--------------------------------------------------------------|
a--------------------------------------------------------------|
f----------------------------------------------------------2---|
C------------3h53h5---------5p3---------------3h5-----2------3-|
G--3h5p3-----3h53h5--3------5p3-----3h5p3-----3h5--/3----------|
C--------6p0-3h53h5-----00--5p3----------6p0--3h5-------00-----|


d--------------------------------------------------------------|
a--------------------------------------------------------------|
f---3--5-------------------------------------------------------|
C---3--5---33335555----5p0-3p0-2p0----------------7p0-5p0-3p0--|
G---1--3---33335555-----------------3h5p3----------------------|
C----------33335555-----------------------6p0-3h5--------------|


d-------------------------------|
a-------------------------------|
f--3-----5-------3-5-109-5-7----|
C--3--0--5-------3-3------------|
G--1--0--3-------1-1-8-7-3-5----|
C-----0-------------------------|

d-----------------------------------------------------------|
a----------------------13------5/6/5------------------------|
f------------------------------------7-5/7-----109-10-12----|
C--8p0-7p0-5p0-8p0-7p0-10-----------------------------------|
G----------------------------------------------8-7-8--10----|
C-----------------------------------------------------------|


d---------------------------------------------------------|
a---------------------------------------------------------|
f---------------------------------------------------------|
C---0-----------------------------------0-----------------|
G---0-----------------------------------0-----------------|
C---0-----------------------------------0-----------------|


d---------------------------------------------------------|
a---------------------------------------------------------|
f---------------------------------------------------------|
C---------------------------------------------------------|
G--00--00-0---00-00-0---00-00--0---00-00-0-----00--00--0--|
C--00--00-0---00-00-0---00-00--0---00-00-0-----00--00--0--|
            
Hard to play? Try these video lessons and learn fast. | Correct




comments powered by Disqus
↑ Back to top | Tablatures and chords are parodies/interpretations of the original songs. You may use it for private study, scholarship, research or language learning purposes only