» » »

Yashin, Everytime Tabs (ver.2)

Artists:  A B C D E F G H I J K L M N O P Q R S T U V W X Y Z # 

Everytime Tabs (ver.2)

Yashin Tabs
 Rating:
4/5 (4 votes)
Everytime lessons Tabs too difficult? Try these video lessons and learn fast
1
                Yashin
Everytime
Drop C (CGCFAD)
(A . means palm mute/ gallop)

Verse
D|--------------------------------------------------------------------|
A|--------------------------------------------------------------------|
F|--------------------------------------12-12-12--9-9-9-10-10-10-10---|  x2
C|---3-3-3-3-3----3-3-3-3~----0-0-0-0-0--/--/--/--/-/-/--/--/--/--/---|
G|---3-3-3-3-3----3-3-3-3~----0-0-0-0-0-10-10-10--7-7-7--8--8--8--8---|
C|---3-3-3-3-3----3-3-3-3~----0-0-0-0-0-------------------------------|
     . . . . .    . . .       . . . . .

Pre-Chorus
D|-------------------------------|
A|-------------------------------|
F|-------------------------------|  x2
C|--77777----3-3-3----3-3-3------|
G|--77777----3-3-3----3-3-3------|
C|--77777----3-3-3----3-3-3------|
             . . .    . . .

Chorus
D|-----------------------------------|
A|--6----13----15----10---11---8-----|
F|--5----12----14----9----10---7-----|  x2
C|--3-x8-10-x8-12-x8-7-x8-8-x8-5-x8--|
G|--3----10----12----7----8----5-----|
C|--3----10----12----7----8----5-----|

Verse
D|--------------------------------------------------------------------|
A|--------------------------------------------------------------------|
F|--------------------------------------12-12-12--9-9-9-10-10-10-10---|  x2
C|---3-3-3-3-3----3-3-3-3~----0-0-0-0-0--/--/--/--/-/-/--/--/--/--/---|
G|---3-3-3-3-3----3-3-3-3~----0-0-0-0-0-10-10-10--7-7-7--8--8--8--8---|
C|---3-3-3-3-3----3-3-3-3~----0-0-0-0-0-------------------------------|
     . . . . .    . . .       . . . . .

Pre-Chorus
D|-------------------------------|
A|-------------------------------|
F|-------------------------------|  x2
C|--77777----3-3-3----3-3-3------|
G|--77777----3-3-3----3-3-3------|
C|--77777----3-3-3----3-3-3------|
             . . .    . . .

Chorus
D|-----------------------------------|
A|--6----13----15----10---11---8-----|
F|--5----12----14----9----10---7-----|  x2
C|--3-x8-10-x8-12-x8-7-x8-8-x8-5-x8--|
G|--3----10----12----7----8----5-----|
C|--3----10----12----7----8----5-----|

Breakdown - LISTEN FOR TIMING

D|-----------------------------|
A|-----------------------------|
F|-----------------------------|  x2
C|--0~-8~-5~-77777~-777777~----|
G|--0~-8~-5~-77777~-777777~----|
C|--0~-8~-5~-77777~-777777~----|
             ....   .....

D|---------------------------------------------|
A|---------------------------------------------|
F|---------------------------------------------|  
C|--00000~-00000~-00000~-88888~-88888~-88888~--|
G|--00000~-00000~-00000~-88888~-88888~-88888~--|
C|--00000~-00000~-00000~-88888~-88888~-88888~--|
    ....   ....   ....   ....   ....   ....

D|---------------------------------------------|
A|---------------------------------------------|
F|---------------------------------------------|  
C|--55555~-55555~-55555~-77777~-77777~-77777~--|
G|--55555~-55555~-55555~-77777~-77777~-77777~--|
C|--55555~-55555~-55555~-77777~-77777~-77777~--|
    ....   ....   ....   ....   ....   ....

D|-------------------------------|
A|-------------------------------|
F|-------------------------------|  
C|--00000~-88888~-55555~-77777~--|
G|--00000~-88888~-55555~-77777~--|
C|--00000~-88888~-55555~-77777~--|
    ....   ....   ....   .... 

Pre-Chorus
D|-------------------------------|
A|-------------------------------|
F|-------------------------------|  
C|--77777----3-3-3----3-3-3------|
G|--77777----3-3-3----3-3-3------|
C|--77777----3-3-3----3-3-3------|

Chorus
D|-----------------------------------|
A|--6----13----15----10---11---8-----|
F|--5----12----14----9----10---7-----|  x2
C|--3-x8-10-x8-12-x8-7-x8-8-x8-5-x8--|
G|--3----10----12----7----8----5-----|
C|--3----10----12----7----8----5-----|

Outro is the chorus galloped however slightly different
            
Submit corrections

comments powered by Disqus
↑ Back to top | Yashin Tabs for Everytime. Lyrics for acoustic guitar and electric guitar. 1 Tablatures and chords are parodies/interpretations of the original songs. You may use it for private study, scholarship, research or language learning purposes only