» » »

Yashin, Down But Homeward Bound Tabs (ver.1)

Artists:  A B C D E F G H I J K L M N O P Q R S T U V W X Y Z # 

Down But Homeward Bound Tabs (ver.1)

Yashin Tabs
 Rating:
4/5 (4 votes)
Down But Homeward Bound lessons Tabs too difficult? Try these video lessons and learn fast
                




d-------------------------------------------|
a-------------------------------------------|
f--5-7--------------------------------------|
C--x-x------5-5h7-8----0--------------------|
G--3/5------5-5h7-8----0--------------------|
C-----------5-5h7-8----0-000-000-00000-0----|
                         ... ... ..... .



d----------------|
a----------------|
f----------------|
C----------------|
G----------3h5---|
C--5p3-00--------|
       ..

Chorus
d------------------------|
a--------6---------------|
f-3---5--5------3---5-55-|
C-3-0-5--3------3-0-5-55-|
G-1-0-3--3------1-0-3-33-|
C---0----3--------0------|


d---------------------------------------------|
a---------------------------------------------|
f---------------------------------------------|
C----------7--------------------7-------------|
G-----------8---------------------8-----------|
C--0-3-5-3-----33333h5--0-3-5-3-------55555p3-|



d------------------------------------------------------------------|
a------------------------------------------------------------------|
f------------------------------------------------------------------|
C----------7---------3--------------------7----------3-------------|
G------------8------------------------------8----------------------|
C--0/3-5-3-----0-3-5----0-3-/10--0/-3-5-3------0-3-5---0-3-5-3-5-3-|

d----------------------------------------------------------|
a----------------------------------------------------------|
f----------------------------------------------------------|
C----------7---------3--------------------7----3--55-------|
G------------8------------------------------8--3--55-55555-|
C--0/3-5-3-----0-3-5----0-3-/10--0/-3-5-3------3--55-55555-|



Lead
d--------55----566666------8886h86h86h68-|
a---5-6--66-6--666666-6--8-6666-66-66-6--|
f---x-x----------------------------------|
C---2-3----------------------------------|
G----------------------------------------|
C----------------------------------------|



d---------------------------------------------------------|
a------------6-5------------------------------------------|
f----------------5/7--------------------------------------|
C---3-2-----------------------2-3-2---------5-7-5---------|
G-------3/5-------------------------3/5-----------7-8-7-5-|
C---------------------------------------------------------|



d-------------------8/10/8-5---------------------|
a---------------5-6------------------------------|
f------------------------------------------------|
C--2-3-2-----------------------------------------|
G--------3/5-------------------------------------|
C------------------------------------------------|

Chorus

d------1213--------!-------------------------------|
a--10-------13--13-!-------------------------------|
f--10--9-10-12--12-!--9-10-------------------------|
C--8--------10--10-!--x-x--------------------------|
G--8--------10-----!--7-8--------------------------|
C--8--------10-----!-------------------------------|


Clean
d---------------------------------------3-----3-------3---3---3------3-|
a-----6----6---6------10------10---10----------------------------------|
f---5----5---------10------10-------------5-----5------5---5---5-------|
C-8----8-----8---0-------0-------0----5-----5-----3h5--------5-----5---|
G----------------------------------------------------------------------|
C----------------------------------------------------------------------|



d------------------12--12---13--------------------------------|
a----10---10--10-----------------8-----8------8----8------8---|
f------10---10---------------------10----10-----10---10----10-|
C-------------------------------------------------------------|
G-------------------------------------------------------------|
C-------------------------------------------------------------|
            
Submit corrections

comments powered by Disqus
↑ Back to top | Yashin Tabs for Down But Homeward Bound. Lyrics for acoustic guitar and electric guitar. Tablatures and chords are parodies/interpretations of the original songs. You may use it for private study, scholarship, research or language learning purposes only