>
 >
36 Hours

36 Hours Guitar Tabs

Yashin - 36 Hours chords, tabs, tablatures, lyrics

Guitar lessons | Add/correct | Request | Top 50 tabs Artists:  A B C D E F G H I J K L M N O P Q R S T U V W X Y Z 0-9

36 Hours Guitar Tabs – Yashin

CD, Sheet music, Poster

Do you like 36 Hours? Share with your friends now
Tabs






Intro Rythm
d----------------------------------------------|
a----------------------------------------------|
F----------------------------------------------|
C--------3-------------------------------------|
G-----------5-3--------------------3-----------|
C--3h5----------6-5-3-0h3-5-3-5-3--------------|
                       .......
d------------------------------------------|
a------------------------------------------|
F----3----3-5------3---3-5-----------------|
C-0--3-5--3-5------3-5-3-5-----------------|
G-0--1-5--1-3------1-5-1-3-----------------|
C-0----5-------------5---------------------|

d----------------------!-------------------|
a----------------------!-------------------|
F----------------------!-------------------|
C------3---------------!-------------------|
G---------5-3-----------!------------------|
C--3h5-------6-5-3--0--!-------------------|

d--------------------------------------------------------------|
a--------------------------------------------------------------|
F--3------------------3----------------------------------------|
C--3--5---------------3-5--------3-----------------------------|
G--1--5---------------1-5-----------5-3--------------------3---|
C-----5-0000-/-0000-----5----3h5-------6-5-3--0h3-5-3-5-3------|

d-----------------------------------------|
a-----------------------------------------|
F-----------------------------------------|
C------3----------------------------------|
G--------5-3--------------------3---------|
C--3h5-------6-5-3--0h3-5-3-5-3---5-3-0---|

d-----------------------------------------------|
a-----------------------------------------------|
F-----------------------------------------------|
C--0---------------------------0--------------0-|
G--0------------0000--------0--000000-0-0-0-0---|
C--0------------0000--------0--000000-0-0-0-0---|

d----------------|
a----------------|
F----------------|
C--0-------------|
G--0-------0000--|
C--0-------0000--|

d------------------------------------------|
a------------------------------------------|
F------------------------------------------|
C------------------------------------------|
G------------------------------------------|
C--000-00-0--------------------------------|

d-----------------------------------------|
a-----------------------------------------|
F-----------------------------------------|
C-----------------------------------------|
G--000-00---0-----------------------------|
C--000-00---0-----------------------------|

d--------------------------------------------|
a--------------------------------------------|
F--------------------------------------------|
C-------3------------------------------------|
G----------5-4-------------------------------|
C--3h5---------7-6-5p0-3p0-------------------|


d-----------------------------------------|
a-----------------------------------------|
F-----------------------------------------|
C-----------------------------------------|
G--000-00---0-----------------------------|
C--000-00---0--1v-------------------------|

d-----------------------------------------|
a-----------------------------------------|
F--3--------------------------------------|
C--3-5--0-0-0-0-0-------------------------|
G--1-5--0-0-0-0-0-------------------------|
C----5--0-0-0-0-0-------------------------|
LEAD
d-----------------------------------------|
a-----------------------------------------|
F-7-5-7-5-9-7-10--7-5-7-12-10-9-10-9-7----|
C-----------------------------------------|
G-5-3-5-3-7-5-8---5-3-5-10-8--7-8--7-5----|
C-----------------------------------------|


d------------------------------------------------|
a------------------------------------------------|
F------5--------------------5p2-----2------------|
C---------3-------------2h3-----3p2--------------|
G--3h5------3p03p0-------------------------------|
C------------------------------------------------|

d-----------------------8-3-5-3---------------------|
a-------------------5-6---------5-------------------|
F--------------5-2----------------------------------|
C----32-23------------------------------------------|
G1-3------------------------------------------------|
C---------------------------------------------------|


d----------------------------------------------------|
a--------------------6/3-----------------------------|
F---------0--2/5-2/3-----3/2-------------------------|
C-----------2----------------3/2/3-------------------|
G----------------------------------------------------|
C--555-----------------------------------------------|


d-----------------------8-3-5-3---------------------|
a-------------------5-6---------5-------------------|
F--------------5-2----------------------------------|
C----32-23------------------------------------------|
G1-3------------------------------------------------|
C---------------------------------------------------|

d--------------------------------------------------|
a--------------------------------------------------|
F-----5---------------------5-2--------------------|
C-------3--------------2-3-------3-----------------|
G-3-3------5p0-3p0---------------------------------|
C--------------------------------------------------|
Chorus
d--------------------------------------------------------|
a--5/6/5-------------------------------------------------|
F--------5-----------------------------------------------|
C----------7-5p0-3p0-2p0-3p0-----------------------------|
G--------------------------------------------------------|
C--------------------------------------------------------|

d--------------------------------------------------------|
a--5/6/5-------------------------------------------------|
F--------5-----------------------------------------------|
C----------7-5p0-3p0-2p0-3p0-----------------------------|
G--------------------------------------------------------|
C--------------------------------------------------------|

d-------------------------------------------|
a-------------------------------------------|
F--------5-2-------5------------------------|
C---2h3----5/3-3/5--------------------------|
G--------------------5----------------------|
C-------------------------------------------|

d---------------3---------------------------------|
a-----------------6-5-3-5/6/5-3-------------------|
F--------5-2--------------------------------------|
C---2h3----5/3------------------------------------|
G-------------------------------------------------|
C-------------------------------------------------|

d--------------------!---------------------------|
a--------------------!---------------------------|
F------5-------------!-------5-2-----------------|
C--0h3---3-----------!---2-3----3--2-------------|
G----------5p0-3p0---!------------5--5-----------|
C--------------------!---------------------------|

d-----------------------------------------------------|
a--8-6-----6------------------------------------------|
F--7-7--7----9---5-7-7-9-10---------------------------|
C--5-5--7--7-7-----0-0-0-0----------------------------|
G--5-5--5--5-5---3-0-0-0-0----------------------------|
C--5-5------------------------------------------------|





Comments


Popular Yashin tabs & chords
Intro Awake While Im Asleep Bass Tabs
Stand Up Chords
Down But Homeward Bound Tabs
Friends In High Places Tabs
Friends In Higher Places Tabs
Intro Awake While Im Asleep Tabs
One Step Closer Tabs
Stand Up Tabs
Stand Up 1 Tabs
Stand Up Ukulele


Song lyrics



↑ Back to top | Tablatures and chords are parodies/interpretations of the original songs. You may use it for private study, scholarship, research or language learning purposes only
© 2014 AZChords.com Contact us | Privacy policy | DMCA | Add/correct tabs | Request tabs | Top 50 tabs