» » »

You Stole My Love Tabs (ver.1)

Artists:  A B C D E F G H I J K L M N O P Q R S T U V W X Y Z # 

You Stole My Love Tabs (ver.1)

Yardbirds
Rating:
0/5 (0 votes)

Hard to play? Try these video lessons and learn fast.
                -------------------------------------------------------------------------------
                YOU STOLE MY LOVE (Backing Track) - The Yardbirds
-------------------------------------------------------------------------------

                                                  Am   Cm    D     G G G   Am
e|-------------------------------------------------5----8----10----3-3-3----5|
B|-------------------------------------------------5----8----10----3-3-3----5|
G|-------------------------------------------------5----8----11----4-4-4----5|
D|---5-----7-5--5-----7-5--5-----7-5--5-----7-5----7---10----12----5-5-5----7|
A|--7-7-5-7-7--7-7-5-7-7--7-7-5-7-7--7-7-5-7-7-----7---10----12----5-5-5----7|
E|-0----------0----------0----------0--------------5----8----10----3-3-3----5|
 
 
     Am   Cm    D     G G G   Am   Am   Cm    D     G G G   Am   Am   Cm    D
e|----5----8----10----3-3-3----5----5----8----10----3-3-3----5----5----8----10|
B|----5----8----10----3-3-3----5----5----8----10----3-3-3----5----5----8----10|
G|----5----8----11----4-4-4----5----5----8----11----4-4-4----5----5----8----11|
D|----7---10----12----5-5-5----7----7---10----12----5-5-5----7----7---10----12|
A|----7---10----12----5-5-5----7----7---10----12----5-5-5----7----7---10----12|
E|----5----8----10----3-3-3----5----5----8----10----3-3-3----5----5----8----10|
 
         (this is in 6/8 time)                            (back to 4/4??)
  G G G   Am   Am   Am   Am                                Am   Cm    D     G
e|3-3-3----5----5----5----5---------------------------------5----8----10----3|
B|3-3-3----5----5----5----5---------------------------------5----8----10----3|
G|4-4-4----5----5----5----5---------------------------------5----8----11----4|
D|5-5-5----7----7----7----7-----6--8------------------------7---10----12----5|
A|5-5-5----7----7----7----7--8--------6--6--6--8--6h7h8-----7---10----12----5|
E|3-3-3----5----5----5----5---------------------------------5----8----10----3|

  
   G G   Am   Am   Cm    D     G G G   Am   Am   Cm    D     G G G   Am   Am
e|-3-3----5----5----8----10----3-3-3----5----5----8----10----3-3-3----5----5-|
B|-3-3----5----5----8----10----3-3-3----5----5----8----10----3-3-3----5----5-|
G|-4-4----5----5----8----11----4-4-4----5----5----8----11----4-4-4----5----5-|
D|-5-5----7----7---10----12----5-5-5----7----7---10----12----5-5-5----7----7-|
A|-5-5----7----7---10----12----5-5-5----7----5---10----12----5-5-5----7----7-|
E|-3-3----5----5----8----10----3-3-3----5----5----8----10----3-3-3----5----5-|

 
    Cm    D     G G G   Am                              A    Dm    G    A
e|---8----10----3-3-3----5------------------------------5----10----3----5----|
B|---8----10----3-3-3----5------------------------------5----10----3----5----|
G|---8----11----4-4-4----5------------------------------6----10----4----6----|
D|--10----12----5-5-5----7------5-----7-5--5-----7-5----7----12----5----7----|
A|--10----12----5-5-5----7-----7-7-5-7-7--7-7-5-7-7-----7----12----5----7----|
E|---8----10----3-3-3----5----0----------0--------------5----10----3----5----|

 
  A    C    D     D     F    G
e|5----8----10----10----1----3-----------------------------------------------|
B|5----8----10----10----1----3-----------------------------------------------|
G|6----9----11----11----2----4-----------------------------------------------|
D|7---10----12----12----3----5------5-----7-5--5-----7-5---------------------|
A|7---10----12----12----3----5-----7-7-5-7-7--7-7-5-7-7----------------------|
E|5----8----10----10----1----4----0----------0-------------------------------|

===============================================================================
            
Hard to play? Try these video lessons and learn fast. | Correct




comments powered by Disqus
↑ Back to top | Tablatures and chords are parodies/interpretations of the original songs. You may use it for private study, scholarship, research or language learning purposes only