» » »

Yardbirds, Stroll On Tabs (ver.1)

Artists:  A B C D E F G H I J K L M N O P Q R S T U V W X Y Z # 

Stroll On Tabs (ver.1)

Yardbirds Tabs
 Rating:
3.6/5 (7 votes)
Stroll On lessons Tabs too difficult? Try these video lessons and learn fast
1
                

Awesome song. Can't believe it hasn't been tabbed yet!
This is far from perfect, but it is a good start, I think.

-|------------------------|-----------------------|---------------------------|
-|------------------------|-----------------------|---------------------------|
-|------------------------|-----------------------|---------------------------|
-|------------------------|-----------------------|---------------------------|
-|------------------------|-----------------------|---------------------------|
-|0-3-0-3-0-0--3-0-3-0-3-0|0-3-0-3-0-0-3-0-3-0-3-0|---------------------------|


------------------------|-----------------------|-----------------------------|
------------------------|-----------------------|-----------------------------|
------------------------|-----------------------|-----------------------------|
------------------------|-----------------------|-----------------------------|
---0---0-----0---0---0--|-----------------------|0-2----0---------------------|
-3---0---0-0---0---0---0|0-3-0-3-0-0-3-0-3-0-3-0|-----------3-0-3-0-0-3-0-3---|


-------||---------------------------------------------------------------------|
-----*-||---------------------------------------------------------------------|
-------||---------------------------------------------------------------------|
-------||---------------------------------------------------------------------|
-----*-||---------------------------------------------------------------------|
-3-0---||---------------------------------------------------------------------|
            
Submit corrections

comments powered by Disqus
↑ Back to top | Yardbirds Tabs for Stroll On. Lyrics for acoustic guitar and electric guitar. 1 Tablatures and chords are parodies/interpretations of the original songs. You may use it for private study, scholarship, research or language learning purposes only