» » »

Yardbirds, Shapes Of Things Bass tabs (ver.2)

Artists:  A B C D E F G H I J K L M N O P Q R S T U V W X Y Z # 

Shapes Of Things Bass tabs (ver.2)

Yardbirds Tabs
Rating:
4/5 (1 vote)
Shapes Of Things lessons Tabs too difficult? Try these video lessons and learn fast
                Band: The Yardbirds 


Tuning: Standard

Intro
G|-------------------------------------------------------------------------| 
D|-------------------------------------------------------------------------| 
A|-------------------------------------------------------------------------| 
E|--111-111-111-111-111-111-111-111----------------------------------------| 

Verse I
G|-------------------------------------------------------------------------| 
D|-------------------------------------------------------------------------| 
A|----2-3-4-5---------2-3-4-5---------2-3-4-5------------------------------| 
E|--3---------5-3-1-3---------5-3-1-3---------5-3-1------------------------|

G|-------------------------------------------------------------------------| 
D|-------------------------------------------------------------------------| 
A|-------------------------------------------------------------------------| 
E|--111-111-111-111-111-111-111-111----------------------------------------| 

G|-------------------------------------------------------------------------| 
D|-------------------------------------------------------------------------| 
A|----2-3-4-5---------2-3-4-5---------2-3-4-5------------------------------| 
E|--3---------5-3-1-3---------5-3-1-3---------5-3-1------------------------|

G|-------------------------------------------------------------------------| 
D|-------------------------------------------------------------------------| 
A|-------------------------------------------------------------------------| 
E|--111-111-111-111-111-111-111-111----------------------------------------| 

Chorus
G|----------5-3-----------3-1-----------5-3-----------3-1------------------| 
D|-----2--5-----5----0--3-----3----2--5-----5----0--3-----3----------------|
A|--3-------------1-------------3-------------1----------------------------|
E|-------------------------------------------------------------------------|

G|----------5-3-----------3-1----------------------------------------------| 
D|-----2--5-----5----0--3-----3--------------------------------------------|
A|--3-------------1--------------1----1----5-------------------------------|
E|-------------------------------------------------------------------------|

Verse II
G|-------------------------------------------------------------------------| 
D|-------------------------------------------------------------------------| 
A|----2-3-4-5---------2-3-4-5---------2-3-4-5------------------------------| 
E|--3---------5-3-1-3---------5-3-1-3---------5-3-1------------------------|

G|-------------------------------------------------------------------------| 
D|-------------------------------------------------------------------------| 
A|-------------------------------------------------------------------------| 
E|--111-111-111-111-111-111-111-111----------------------------------------| 

G|-------------------------------------------------------------------------| 
D|-------------------------------------------------------------------------| 
A|----2-3-4-5---------2-3-4-5---------2-3-4-5------------------------------| 
E|--3---------5-3-1-3---------5-3-1-3---------5-3-1------------------------|

G|-------------------------------------------------------------------------| 
D|-------------------------------------------------------------------------| 
A|-------------------------------------------------------------------------| 
E|--111-111-111-111-111-111-111-111----------------------------------------|

Chorus
G|----------5-3-----------3-1-----------5-3-----------3-1------------------| 
D|-----2--5-----5----0--3-----3----2--5-----5----0--3-----3----------------|
A|--3-------------1-------------3-------------1----------------------------|
E|-------------------------------------------------------------------------|

G|----------5-3-----------3-1----------------------------------------------| 
D|-----2--5-----5----0--3-----3--------------------------------------------|
A|--3-------------1--------------1----1----5-------------------------------|
E|-------------------------------------------------------------------------|

Solo
G|-------------------------------------------------------------------------| 
D|-------------------------------------------------------------------------| 
A|-------------------------------------------------------------------------| 
E|--3-3-3-333333--1-1-1-111111--3-3-3-333333--1-1-1-111111-----------------|

G|-------------------------------------------------------------------------| 
D|-------------------------------------------------------------------------| 
A|-------------------------------------------------------------------------| 
E|--3-3-3-333333--1-1-1-111111--3-3-3-333333--1-1-1-111111-----------------|

G|-------------------------------------------------------------------------| 
D|-------------------------------------------------------------------------| 
A|-------------------------------------------------------------------------| 
E|--3-3-3-333333--1-1-1-111111--3-3-3-333333--1-1-1-111111-----------------|

G|-------------------------------------------------------------------------| 
D|-------------------------------------------------------------------------| 
A|--------------------------------1----1----5------------------------------| 
E|--3-3-3-333333--1-1-1-111111---------------------------------------------|

Verse III/Outro
G|-------------------------------------------------------------------------| 
D|-------------------------------------------------------------------------| 
A|----2-3-4-5---------2-3-4-5---------2-3-4-5------------------------------| 
E|--3---------5-3-1-3---------5-3-1-3---------5-3-1------------------------|

G|-------------------------------------------------------------------------| 
D|-------------------------------------------------------------------------| 
A|-------------------------------------------------------------------------| 
E|--111-111-111-111-111-111-111-111-3---------------------------------------|
            

comments powered by Disqus
↑ Back to top | Yardbirds Bass for Shapes Of Things. Lyrics for acoustic guitar and electric guitar. Tablatures and chords are parodies/interpretations of the original songs. You may use it for private study, scholarship, research or language learning purposes only