» » »

Yardbirds, For Your Love Bass tabs (ver.2)

Artists:  A B C D E F G H I J K L M N O P Q R S T U V W X Y Z # 

For Your Love Bass tabs (ver.2)

Yardbirds Tabs
 Rating:
4/5 (4 votes)
For Your Love lessons Tabs too difficult? Try these video lessons and learn fast
1
                For Your Love
The Yardbirds
Written by Graham Gouldman; released as a single with "Got To Hurry" as the 
B-side.

Intro:
G|------- ------- ------- -------|------- ------- ------- -------|
D|-------------------------------|5------------------------------|
A|7------------------------------|-------------------------------|
E|-------------------------------|-------------------------------|



G|------- ------- ------- -------|------- ------- ------- -------|
D|7------------------------------|7------------------------------|
A|-------------------------------|-------------------------------|
E|-------------------------------|-------------------------------|



G|------- ------- ------- -------|------- ------- ------- -------|
D|-------------------------------|5------------------------------|
A|7------------------------------|-------------------------------|
E|-------------------------------|-------------------------------|



G|------- ------- ------- -------|------- ------- ------- -------|
D|7------------------------------|7------------------------------|
A|-------------------------------|-------------------------------|
E|-------------------------------|-------------------------------|
                                                      For your love


G|------- ------- ------- -------|------- ------- ------- -------|
D|-------------------------------|5------------------------------|
A|7------------------------------|-------------------------------|
E|-------------------------------|-------------------------------|



G|------- ------- ------- -------|------- ------- ------- -------|
D|7------------------------------|7------------------------------|
A|-------------------------------|-------------------------------|
E|-------------------------------|-------------------------------|
                                                      For your love


G|------- ------- ------- -------|------- ------- ------- -------|
D|-------------------------------|5------------------------------|
A|7------------------------------|-------------------------------|
E|-------------------------------|-------------------------------|



G|------- ------- ------- -------|------- ------- ------- -------|
D|7------------------------------|7------------------------------|
A|-------------------------------|-------------------------------|
E|-------------------------------|-------------------------------|
                                                      For your love

Verse:
G|------- ------- ------- -------|------- ------- ------- -------|
D|-------------------------------|5------------------------------|
A|7------------------------------|-------------------------------|
E|-------------------------------|-------------------------------|
          I'd     give you    eve    -    rything         and


G|------- ------- ------- -------|------- ------- ------- -------|
D|7------------------------------|7------------------------------|
A|-------------------------------|-------------------------------|
E|-------------------------------|-------------------------------|
  more,   and     that's  for sure,
                                                     (For your love)

G|------- ------- ------- -------|------- ------- ------- -------|
D|-------------------------------|5------------------------------|
A|7------------------------------|-------------------------------|
E|-------------------------------|-------------------------------|
          I'd     bring you   dia         mond rings      and


G|------- ------- ------- -------|------- ------- ------- -------|
D|7------------------------------|7------------------------------|
A|-------------------------------|-------------------------------|
E|-------------------------------|-------------------------------|
  things  right   to  your    door.
                                                     (For your love)

G|------- ------- ------- -------|------- ------- ------- -------|
D|-------------------------------|5------------------------------|
A|7------------------------------|-------------------------------|
E|-------------------------------|-------------------------------|
          To      thrill you  with        de- light,


G|------- ------- ------- -------|------- ------- ------- -------|
D|7------------------------------|7------------------------------|
A|-------------------------------|-------------------------------|
E|-------------------------------|-------------------------------|
          I'd     give you    dia    -    monds bright,


G|------- ------- ------- -------|------- ------- ------- -------|
D|-------------------------------|5------------------------------|
A|7------------------------------|-------------------------------|
E|-------------------------------|-------------------------------|
          There'll things     will    ex  -   cite,
              be      that

G|------- ------- ------- -------|------- ------- ------- -------|
D|7------------------------------|7------------------------------|
A|-------------------------------|-------------------------------|
E|-------------------------------|-------------------------------|
      to  make you dream of   me         at  night.  For your love,

Refrain:
G|------- ------- ------- -------|------- ------- ------- -------|
D|-------------------------------|5------------------------------|
A|7------------------------------|-------------------------------|
E|-------------------------------|-------------------------------|



G|------- ------- ------- -------|------- ------- ------- -------|
D|7------------------------------|7------------------------------|
A|-------------------------------|-------------------------------|
E|-------------------------------|-------------------------------|
                                                      For your


G|------- ------- ------- -------|------- ------- ------- -------|
D|-------------------------------|5------------------------------|
A|7------------------------------|-------------------------------|
E|-------------------------------|-------------------------------|
  love,


G|------- ------- ------- -------|------- ------- ------- -------|
D|7------------------------------|7------------------------------|
A|-------------------------------|-------------------------------|
E|-------------------------------|-------------------------------|
                                                      For your


G|------- ------- ------- -------|------- ------- ------- -------|
D|-------------------------------|5------------------------------|
A|7------------------------------|-------------------------------|
E|-------------------------------|-------------------------------|
  love.


G|------- ------- ------- -------|------- ------- ------- -------|
D|7------------------------------|7------------------------------|
A|-------------------------------|-------------------------------|
E|-------------------------------|-------------------------------|


                                  (slower tempo)
G|------- ------- ------- -------|------- ------- ------- -------|
D|-------------------------------|-------------------------------|
A|7------------------------------|-------------------------------|
E|-------------------------------|-------------------------------|



G|------- ------- ------- -------|
D|-------------------------------|
A|-------------------------------|
E|-------------------------------|
                  For your    love,

Bridge:
G|------- ------- ------- -------|------- ------- ------- -------|
D|------------------------6------|------------------------6------|
A|--------6---6---9---9-------9--|--------6---6---9---9-------9--|
E|7---7--------------------------|7---7--------------------------|
                  for your    love,                   I       would


G|------- ------- ------- -------|------- ------- ------- -------|
D|------------------------4------|-------------------------------|
A|--------4---4---7---7-------7--|------------------------4------|
E|5---5--------------------------|0---0---4---4---7---7-------7--|
  give    the     stars   a - bove,               For your    love,


G|------- ------- ------- -------|------- ------- ------- -------|
D|------------------------6------|------------------------6------|
A|--------6---6---9---9-------9--|--------6---6---9---9-------9--|
E|7---7--------------------------|7---7--------------------------|
                  for your    love,                   I       would


G|------- ------- ------- -------|------- ------- ------- -------|
D|------------------------4------|-------------------------------|
A|--------4---4---7---7-------7--|4-----------------------4------|
E|5---5--------------------------|-------------------------------|
  give you        all I           could.

  (original tempo)
G|------- ------- ------- -------|
D|-------------------------------|
A|-------------------------------|
E|7------------------------------|


Re-intro:
G|------- ------- ------- -------|------- ------- ------- -------|
D|-------------------------------|5------------------------------|
A|7------------------------------|-------------------------------|
E|-------------------------------|-------------------------------|



G|------- ------- ------- -------|------- ------- ------- -------|
D|7------------------------------|7------------------------------|
A|-------------------------------|-------------------------------|
E|-------------------------------|-------------------------------|



G|------- ------- ------- -------|------- ------- ------- -------|
D|-------------------------------|5------------------------------|
A|7------------------------------|-------------------------------|
E|-------------------------------|-------------------------------|



G|------- ------- ------- -------|------- ------- ------- -------|
D|7------------------------------|7------------------------------|
A|-------------------------------|-------------------------------|
E|-------------------------------|-------------------------------|
                                                      For your love


G|------- ------- ------- -------|------- ------- ------- -------|
D|-------------------------------|5------------------------------|
A|7------------------------------|-------------------------------|
E|-------------------------------|-------------------------------|



G|------- ------- ------- -------|------- ------- ------- -------|
D|7------------------------------|7------------------------------|
A|-------------------------------|-------------------------------|
E|-------------------------------|-------------------------------|
                                                      For your love


G|------- ------- ------- -------|------- ------- ------- -------|
D|-------------------------------|5------------------------------|
A|7------------------------------|-------------------------------|
E|-------------------------------|-------------------------------|



G|------- ------- ------- -------|------- ------- ------- -------|
D|7------------------------------|7------------------------------|
A|-------------------------------|-------------------------------|
E|-------------------------------|-------------------------------|
                                                      For your love

Verse:
G|------- ------- ------- -------|------- ------- ------- -------|
D|-------------------------------|5------------------------------|
A|7------------------------------|-------------------------------|
E|-------------------------------|-------------------------------|
          I'd     give the    Moon                if  it      were


G|------- ------- ------- -------|------- ------- ------- -------|
D|7------------------------------|7------------------------------|
A|-------------------------------|-------------------------------|
E|-------------------------------|-------------------------------|
                  mine    to  give,
                                                     (For your love)

G|------- ------- ------- -------|------- ------- ------- -------|
D|-------------------------------|5------------------------------|
A|7------------------------------|-------------------------------|
E|-------------------------------|-------------------------------|
          I'd     give the    stars               and the


G|------- ------- ------- -------|------- ------- ------- -------|
D|7------------------------------|7------------------------------|
A|-------------------------------|-------------------------------|
E|-------------------------------|-------------------------------|
  Sun            'fore I      live.
                                                     (For your love)

G|------- ------- ------- -------|------- ------- ------- -------|
D|-------------------------------|5------------------------------|
A|7------------------------------|-------------------------------|
E|-------------------------------|-------------------------------|
          To      thrill you  with        de- light,


G|------- ------- ------- -------|------- ------- ------- -------|
D|7------------------------------|7------------------------------|
A|-------------------------------|-------------------------------|
E|-------------------------------|-------------------------------|
          I'd     give you    dia    -    monds bright,


G|------- ------- ------- -------|------- ------- ------- -------|
D|-------------------------------|5------------------------------|
A|7------------------------------|-------------------------------|
E|-------------------------------|-------------------------------|
          There'll things     will    ex  -   cite,
              be      that

G|------- ------- ------- -------|------- ------- ------- -------|
D|7------------------------------|7------------------------------|
A|-------------------------------|-------------------------------|
E|-------------------------------|-------------------------------|
      to  make you dream of   me          at  night.  For your

Refrain:
G|------- ------- ------- -------|------- ------- ------- -------|
D|-------------------------------|5------------------------------|
A|7------------------------------|-------------------------------|
E|-------------------------------|-------------------------------|
  love,


G|------- ------- ------- -------|------- ------- ------- -------|
D|7------------------------------|7------------------------------|
A|-------------------------------|-------------------------------|
E|-------------------------------|-------------------------------|
                                                      For your


G|------- ------- ------- -------|------- ------- ------- -------|
D|-------------------------------|5------------------------------|
A|7------------------------------|-------------------------------|
E|-------------------------------|-------------------------------|
  love,


G|------- ------- ------- -------|------- ------- ------- -------|
D|7------------------------------|7------------------------------|
A|-------------------------------|-------------------------------|
E|-------------------------------|-------------------------------|
                                                      For your


G|------- ------- ------- -------|------- ------- ------- -------|
D|-------------------------------|5------------------------------|
A|7------------------------------|-------------------------------|
E|-------------------------------|-------------------------------|
  love,


G|------- ------- ------- -------|------- ------- ------- -------|
D|7------------------------------|7------------------------------|
A|-------------------------------|-------------------------------|
E|-------------------------------|-------------------------------|
                                                      For your


G|------- ------- ------- -------|------- ------- ------- -------|
D|-------------------------------|5------------------------------|
A|7------------------------------|-------------------------------|
E|-------------------------------|-------------------------------|
  love.


G|------- ------- ------- -------|------- ------- ------- -------|
D|7------------------------------|7------------------------------|
A|-------------------------------|-------------------------------|
E|-------------------------------|-------------------------------|



G|------- ------- ------- -------|------- ------- ------- -------|
D|-------------------------------|-------------------------------|
A|7------------------------------|-------------------------------|
E|-------------------------------|-------------------------------|


Please e-mail me for any corrections, or write a comment.
            
Submit corrections

comments powered by Disqus
↑ Back to top | Yardbirds Bass for For Your Love. Lyrics for acoustic guitar and electric guitar. 1 Tablatures and chords are parodies/interpretations of the original songs. You may use it for private study, scholarship, research or language learning purposes only