» » »

Yardbirds, What Do You Want Bass tabs (ver.1)

Artists:  A B C D E F G H I J K L M N O P Q R S T U V W X Y Z # 

What Do You Want Bass tabs (ver.1)

Yardbirds Tabs
Rating:
0/5 (0 votes)
What Do You Want lessons Tabs too difficult? Try these video lessons and learn fast
                THE YARDBIRDS - WHAT DO YOU WANT
BASSIST: PAUL SAMWELL-SMITH

INTRO

E -----------------------------------------------|
A ----5-7------5-7-7---------5-7-----5-7-7-------|
D --7-----5-7---------5----7-----5-7--------5----|
G -----------------------------------------------|

VERSE

E --------------7-5----------------7-5--|
A --5-7---5-7-5--------5-7---5-7-5------|
D ------7------------------7------------|
G --------------------------------------|

VARIATIONS


E --------------7-5---------------7-5--------------7-5--|
A --5-7---5-7-5---------7---5-7-5--------7---5-7-5------|
D ------7-----------------7----------------7------------|
G ------------------------------------------------------|

BRIDGE
                                         BACK TO THE VERSE
E --------------------------7-----------|---------------7-5-|
A ---------------8-10---7-5---3-5-7-----|--5-7---5-7-5------|
D -------12-10-8------5--------------5-7|------7------------|
G -12-10--------------------------------|-------------------|


BREAK                  (...and then turn into to the verse)

E ---------------------|--------------7-5---|
A ----7-7---7-7--------|--5-7---5-7-5-------|
D --7-----7-----5--7---|------7-------------|
G ---------------------|--------------------|

the yardbirdssssssssssssssssssssssssss
(jeff beck on guitar)

JAH WOBBLE IS GOD!!!
            
Submit corrections

comments powered by Disqus
↑ Back to top | Yardbirds Bass for What Do You Want. Lyrics for acoustic guitar and electric guitar. Tablatures and chords are parodies/interpretations of the original songs. You may use it for private study, scholarship, research or language learning purposes only