» » »

Yardbirds, Psycho Daisies Tabs (ver.1)

Artists:  A B C D E F G H I J K L M N O P Q R S T U V W X Y Z # 

Psycho Daisies Tabs (ver.1)

Yardbirds Tabs
 Rating:
4.4/5 (7 votes)
Psycho Daisies lessons Tabs too difficult? Try these video lessons and learn fast
1
                Yardbirds
Psycho Daisies - Roger The Engineer

Intro:
e||--------------------------------------------------------------------------|
B||--3-3----------3-3--------------------------------------------------------|
G||------5-5-3--------5-3--------------------------3-3---3~3~3~3~3~3~-3-5b-3-|
D||------------3------------5-5-5-5-5-5-5-5-x-5-5------5---------------------|
A||-------------------------5-5-5-5-5-5-5-5-x-5-5----------------------------|
E||-------------------------3-3-3-3-3-3-3-3-x-3-3----------------------------|

verse 1:
e||-----------------------|
B||-----------------------|
G||-----------------------|
D||--5-5-5-5-5-5-5-5-5-5--| x2
A||--5-5-5-5-5-5-5-5-5-5--|
E||--3-3-3-3-3-3-3-3-3-3--|

e||----------------------------------------------|
B||----------------------------------------------|
G||--5-5-5-5-5-5-7/5/7/5-------------------------|
D||--5-5-5-5-5-5-7/5/7/5----5-5-5-5-5-5-5-5-5-5--|
A||--3-3-3-3-3-3-5/3/5/3----5-5-5-5-5-5-5-5-5-5--|
E||-------------------------3-3-3-3-3-3-3-3-3-3--|

e||-----------------------------------------------|
B||-----------------------------------------------|
G||--7-7-7-7-7-7-7-7-7-7/-------------------------|
D||--7-7-7-7-7-7-7-7-5-7/----5-5-5-5-5-5-5-5-5-5--|
A||--5-5-5-5-5-5-5-5-5-5/----5-5-5-5-5-5-5-5-5-5--|
E||--------------------------3-3-3-3-3-3-3-3-3-3--|

solo:
e||-----------------------------------------------------|
B||-----------------------------------------------------|
G||------------3-3-5b--3h5h3---3~-----------------------|
D||--------3-5---------------5-----5-5-5-5-5-5-5-5-5-5--|
A||------5-------------------------5-5-5-5-5-5-5-5-5-5--|
E||--3-3---------------------------3-3-3-3-3-3-3-3-3-3--|

e||------------------------------------------------------|
B||------3-----------------------------------------------|
G||--3-5---5h3h0-5h3h0-5h3h0-5b-----------------------3\-|
D||------------------------------5-5-5-5-5-5-5-5-5-5-----|
A||------------------------------5-5-5-5-5-5-5-5-5-5-----|
E||------------------------------3-3-3-3-3-3-3-3-3-3-----|

verse 2:

guitar 1:

          riff 1&2
e||-----------------------|
B||-----------------------|
G||-----------------------|
D||--5-5-5-5-5-5-5-5-5-5--| x2
A||--5-5-5-5-5-5-5-5-5-5--|
E||--3-3-3-3-3-3-3-3-3-3--|

                       riff 3
e||----------------------------------------------|
B||----------------------------------------------|
G||--5-5-5-5-5-5-7/5/7/5-------------------------|
D||--5-5-5-5-5-5-7/5/7/5----5-5-5-5-5-5-5-5-5-5--|
A||--3-3-3-3-3-3-5/3/5/3----5-5-5-5-5-5-5-5-5-5--|
E||-------------------------3-3-3-3-3-3-3-3-3-3--|

                       riff 4
e||-----------------------------------------------|
B||-----------------------------------------------|
G||--7-7-7-7-7-7-7-7-7-7/-------------------------|
D||--7-7-7-7-7-7-7-7-5-7/----5-5-5-5-5-5-5-5-5-5--|
A||--5-5-5-5-5-5-5-5-5-5/----5-5-5-5-5-5-5-5-5-5--|
E||--------------------------3-3-3-3-3-3-3-3-3-3--|

guitar 2 (when guitar 1 plays )

4 figures for 4 riffes, riff 1 - figure 1 , riff 2 - figure 2 etc.

      figure 1         figure 2
e||--------------|------------------|
B||--------------|--3-3-------------|
G||----3-5-5b-3--|----5b-5b-3h5h3~--|
D||--5-----------|------------------|
A||--------------|------------------|
E||--------------|------------------|

                       figure 3
e||---------------------------------------------------|
B||---------------------------------3-----------------|
G||--5b-5-3-5h3-5h3-5-3~-----5b-3-5---5h3h0-5h3h0-5b--|
D||---------------------------------------------------|
A||---------------------------------------------------|
E||---------------------------------------------------|

                    figure 4
e||-------------------------------------------|
B||------------------3------------------------|
G||--3h5h5-------3h5---5------------5h3h5h3~--|
D||--------3h5h3--------------3h5h3-----------|
A||-------------------------5-----------------|
E||-------------------------------------------|

Outro:
e||------------------------------------------------------------------------|
B||---3-3----------3-3-----------------------------------------------------|
G||-------5-5-3--------5-3---------------------------3---------------------|
D||-------------3------------5-5-5-5-5-5-5-5-5-5-5-----5b-5-3-5b-3-5-3~----|
A||--------------------------5-5-5-5-5-5-5-5-5-5-5-------------------------|
E||--------------------------3-3-3-3-3-3-3-3-3-3-3-------------------------|
            
Submit corrections

comments powered by Disqus
↑ Back to top | Yardbirds Tabs for Psycho Daisies. Lyrics for acoustic guitar and electric guitar. 1 Tablatures and chords are parodies/interpretations of the original songs. You may use it for private study, scholarship, research or language learning purposes only