>
 >
Im Not Talkin

Im Not Talkin Guitar Tabs

Yardbirds - Im Not Talkin chords, tabs, tablatures, lyrics

Guitar lessons | Add/correct | Request | Top 50 tabs Artists:  A B C D E F G H I J K L M N O P Q R S T U V W X Y Z 0-9

Im Not Talkin Guitar Tabs – Yardbirds

CD, Sheet music, Poster

Do you like Im Not Talkin? Share with your friends now
Tabs
Im Not Talkin'
The Yardbirds
For Your Love 
1965


Intro:

|-1-8--||------------------------||------------------------||-8--6-4-2-1-||
|-1-8--||------------------------||------------------------||-8--6-4-2-1-||
|-1-8--||------------------------||---10-10-8----8-10-8-10-||-8--6-4-2-1-||
|-3-10-||---10-10-8----8-10-8-10-||-----------10-----------||-10-8-6-4-3-||
|-3-10-||-----------10-----------||-8----------------------||-10-8-6-4-3-||
|-1-8--||-8----------------------||------------------------||-8--6-4-2-1-||

Verse: 

|----------------------------||
|----------------------------||
|-8--------------------------||
|-10--3-3----3-3-1---3-1-3-1-||
|-10--3-3----------3---------||
|-8---1-1--1-----------------||

Lead break:

|----------------------------------------4-2-||
|----------------------------------------4-2-||
|-------8-10-10b-10-8-10-8---------------4-2-||
|-10-10--------------------10-8-10-10-10-6-4-||
|-10-------------------------------------6-4-||
|----------------------------------------4-2-||

Solo 1:

|-6/8-8-6----------------------------------------------------------------|
|---------8-6------------------------------------------------------------|
|-------------8/10-10-8-10-8----------------------8-10b-10b-8-10b-10b-10-|
|----------------------------10-8-10-10-10-8-8-10------------------------|
|------------------------------------------------------------------------|
|------------------------------------------------------------------------|

|-8-8-6---8-6---8-6---8-6---8-6---8-6---8-6---8-6---6/8-8-|
|-------8-----8-----8-----8-----8-----8-----8-----8-------|
|---------------------------------------------------------|
|---------------------------------------------------------|
|---------------------------------------------------------|
|---------------------------------------------------------|

|---------------------------------------------------------------------4-2-|
|-6h7-6---4-6-4-6-6h7---4-6-4-6h7-6/4---4-6-4-6/7---------------------4-2-|
|-------5-------------5---------------5-----------5-5-5-5-7/8-7/8\7-5-4-2-|
|---------------------------------------------------------------------6-4-|
|---------------------------------------------------------------------6-4-|
|---------------------------------------------------------------------4-2-|
 

Solo 2:

|-------------------------------------------------------------------------|
|-----6-4---------------------4---5---6---8-------------------------------|
|-5-5-----5-5-3-5-5-5-3-4-3-4---5---6---7----3/5-3\5-5-5\3\0-5-5\-3\0-5-3-|
|-------------------------------------------------------------------------|
|-------------------------------------------------------------------------|
|-------------------------------------------------------------------------|

|----------------------------8-8-6---6/8-8-8-6---6b---------------------4-2-|
|----4-6-4-6/7-6---4-6-4-6/7-------8-----------8--------4---------------4-2-|
|-5--------------5----------------------------------5-5---5-7/8-7/8\7-5-4-2-|
|-----------------------------------------------------------------------6-4-|
|-----------------------------------------------------------------------6-4-|
|-----------------------------------------------------------------------2-2-|


Any Suggestion???





Comments


Popular Yardbirds tabs & chords
Heart Full Of Soul Bass Tabs
Train Kept A Rollin' Bass Tabs
Mr Your A Better Man Than I Chords
Shapes Of Things Chords
Farewell Tabs
Stroll On 1 Tabs
Think About It Intro Tabs
Train Kept A Rollin' Tabs
You Stole My Love 1 Tabs
Train Kept A Rollin Ukulele


Song lyrics



↑ Back to top | Tablatures and chords are parodies/interpretations of the original songs. You may use it for private study, scholarship, research or language learning purposes only
© 2014 AZChords.com Contact us | Privacy policy | DMCA | Add/correct tabs | Request tabs | Top 50 tabs