» » »

Yardbirds, Happenings Ten Years Time Ago Tabs (ver.2)

Artists:  A B C D E F G H I J K L M N O P Q R S T U V W X Y Z # 

Happenings Ten Years Time Ago Tabs (ver.2)

Yardbirds Tabs
Rating:
5/5 (2 votes)
Happenings Ten Years Time Ago lessons Tabs too difficult? Try these video lessons and learn fast
                Yardbirds
Happenings Ten Years Time Ago
off of Birdland

Contains everything but the solo

Intro
|--------------------------------------------------------------------|
|-------7-8---b10r--7------------------------------------------------|
|--/9-----------------7--9-------------------------------------------|
|--------------------------------------------------------------------|
|--------------------------------------------------------------------|
|--------------------------------------------------------------------|


Theme
|-7-------7--7-------------------------------------------------------|
|-8-------8--8-------------------------------------------------------|
|-9-------9--9---999-8-7-6-------------------------------------------|
|-9-------9--9-------------------------------------------------------|
|-7-------7--7---777-6-5-4-------------------------------------------|
|--------------------------------------------------------------------|


Verse
|-7-------7--7-------------------------------------------------------|
|-8-------8--8-------------------------------------------------------|
|-9-------9--9-------------------------------------------------------|
|-9-------9--9-------------------------------------------------------|
|-7-------7--7-------------------------------------------------------|
|--------------------------------------------------------------------|


Post-Verse
|--------------------------------------------------------------------|
|--------------------------------------------------------------------|
|-7-------7-9------9-7---9-------------------------------------------|
|-7-------7-9------9-7---9-------------------------------------------|
|-5-------5-7------7-5---7-------------------------------------------|
|--------------------------------------------------------------------|


"Sinking Deep Into the Well of Time"
Henceforth known as SDITWOT
|--------------------------------------------------------------------|
|-7-8-x16------------------------------------------------------------|
|--------------------------------------------------------------------|
|--------------------------------------------------------------------|
|--------------------------------------------------------------------|
|--------------------------------------------------------------------|


Verse w/alt ending

|-7-------7--7-------------------------------------------------------|
|-8-------8--8-------------------------------------------------------|
|-9-------9--9----9--7-----------------------------------------------|
|-9-------9--9----9--7-----------------------------------------------|
|-7-------7--7----7--5-----------------------------------------------|
|--------------------------------------------------------------------|


Pre-Solo

|--------------------------------------------------------------------|
|--------------------------------------------------------------------|
|-7---9---9---9---9---9---9--------------------------|
|-7---9-----8---8---8---8-8------------------------------------------|
|-5---7--------------------------------------------------------------|
|--------------------------------------------------------------------|


Solo Backing

|--------------------------------------------------------------------|
|--------------------------------------------------------------------|
|--9-----9-----9-----9-----9---9-------------------------------------|
|--9---9-9---9-9---9-9---9-9-9-9-9-----------------------------------|
|--7---9-7---9-7---9-7---9-7-9-7-9-----------------------------------|
|------7-----7-----7-----7---7---7-----------------------------------|


Last part of solo (not entirely sure about this part, it's getting late and i need to do sh*t)

|--------------------------------------------------------------------|
|--------------------------------------------------------------------|
|-4-4-4-4-5-5-5-5-7-7-7-7-9-9-9-9------------------------------------|
|-4-4-4-4-5-5-5-5-7-7-7-7-9-9-9-9------------------------------------|
|-2-2-2-2-3-3-3-3-5-5-5-5-7-7-7-7------------------------------------|
|--------------------------------------------------------------------|


Order

Intro x2
Theme x4
Verse x8
Post-Verse
SDITWOT
Theme x4
Verse x8
SDITWOT
Theme x2
Verse x7
Verse alternative ending
Pre-Solo
Solo Backing x6
Last part of solo x2
Theme x2
Verse x8
SDITWOT
Theme x8
Last Part of solo x2
End on Em
            
Submit corrections

comments powered by Disqus
↑ Back to top | Yardbirds Tabs for Happenings Ten Years Time Ago. Lyrics for acoustic guitar and electric guitar. Tablatures and chords are parodies/interpretations of the original songs. You may use it for private study, scholarship, research or language learning purposes only