>
 >
Happenings Ten Years Time Ago

Happenings Ten Years Time Ago Guitar Tabs

Yardbirds - Happenings Ten Years Time Ago chords, tabs, tablatures, lyrics

Guitar lessons | Add/correct | Request | Top 50 tabs Artists:  A B C D E F G H I J K L M N O P Q R S T U V W X Y Z 0-9

Happenings Ten Years Time Ago Guitar Tabs – Yardbirds

CD, Sheet music, Poster

Do you like Happenings Ten Years Time Ago? Share with your friends now
Bass TabsTabsTabs v2
The Yardbirds
Roger The Engineer

intro
e||------------------------------|-----------------------------|
B||------------------------------|-----------------------------|
G||------------------------------|-----------------------------|
D||--------4--5--7--5--4---------|--------4--5--7--5--4--------|
A||--7--7-----------------5--7---|--7--7-----------------5--7--|
E||------------------------------|-----------------------------|

fills
e||-------------------|
B||--7-8-8p7-8p7-8p7--|
G||-------------------|
D||-------------------|
A||-------------------|
E||-------------------|

verse
e||-----------------4-----4--4--|-----------------4-----4--4--|--4-----4--4----4-----4--4--|
B||-----------------5-----5--5--|-----------------5-----5--5--|--5-----5--5----5-----5--5--|
G||-----------------4-----4--4--|-----------------4-----4--4--|--4-----4--4----4-----4--4--|
D||-----------------------------|-----------------------------|----------------------------|
A||--7-7-6-6-5-5-4--------------|--7-7-6-6-5-5-4--------------|----------------------------|
E||-----------------------------|-----------------------------|----------------------------|

solo
e||-----------------------------------------------------------------------------------------------|
B||-----------------------------------------------------------------------------------------------|
G||--14\--12--14\\--12--14-12-14-12--14p12h14b(16)~-14b(15)-14b(15)r14p12--14-12-14-14p12h14b(16)~|
D||-----------------------------------------------------------------------------------------------|
A||-----------------------------------------------------------------------------------------------|
E||-----------------------------------------------------------------------------------------------|


e||--------------------------------------------------------------------20p17----20p17-----|
B||----------------------------------15b(16)-15b(16)-15p12h15-15b(16)~-------20-------20--|
G||--14-14p12-14--12--14p12--12p11~-------------------------------------------------------|
D||---------------------------------------------------------------------------------------|
A||---------------------------------------------------------------------------------------|
E||---------------------------------------------------------------------------------------|


e||--20p17----20p17----20p17------20p17----20p17----20p17----20p17------20p17----20p17----|
B||--------20-------20-------20---------20-------20-------20-------20---------20-------20-|
G||---------------------------------------------------------------------------------------|
D||---------------------------------------------------------------------------------------|
A||---------------------------------------------------------------------------------------|
E||---------------------------------------------------------------------------------------|


e||-20p17----20p17----20p17------20p17----20p17----20p17----20p17------20p17----20p17-----|
B||-------20-------20-------20---------20-------20-------20-------20---------20-------20--|
G||---------------------------------------------------------------------------------------|
D||---------------------------------------------------------------------------------------|
A||---------------------------------------------------------------------------------------|
E||---------------------------------------------------------------------------------------|


e||---------------------------------------------------------------------------------------|
B||--20-17--------------------------------------------------------------------------------|
G||---------------------------------------------------------------------------------------|
D||---------------------------------------------------------------------------------------|
A||---------------------------------------------------------------------------------------|
E||---------------------------------------------------------------------------------------|

  alternate (and I think easier) way to play the solo ending
e||--20p17p15----20p17p15----20p17p15----20p17p15----20p17p15----||x4
B||--------------------------------------------------------------||  
G||--------------------------------------------------------------||  
D||--------------------------------------------------------------||  
A||--------------------------------------------------------------||  
E||--------------------------------------------------------------||  

e||--15-----|
B||-----17--|
G||---------|
D||---------|
A||---------|
E||---------|





Comments


Popular Yardbirds tabs & chords
Little Games Chords
Psycho Daisies Chords
Got To Hurry Tabs
Happenings Ten Years Time Ago 1 Tabs
Mystery Of Being Tabs
Psycho Daisies Tabs
Evil Hearted You Ukulele
Louise Ukulele
Over Under Sideways Down Ukulele
Shapes Of Things Ukulele


Song lyrics



↑ Back to top | Tablatures and chords are parodies/interpretations of the original songs. You may use it for private study, scholarship, research or language learning purposes only
© 2014 AZChords.com Contact us | Privacy policy | DMCA | Add/correct tabs | Request tabs | Top 50 tabs